Sponge Cola - Neon Chords & Tabs

 

Neon Chords & Tabs

Sponge Cola Chords & Tabs

Version: 1 Type: Tab 1 rating
1 star 2 stars 3 stars 4 stars 5 stars
comments

Neon Tab

   
Title:	Neon
Artist:	Sponge Cola
Tabbed by:
	Marci "DaMars" San Diego

		08/06/05

Eto pa isang malupit ng SpongeCola!
Para 'to sa mga sawi sa pag-ibig!...:(

* * * N E O N * * *

Intro:
    G     F#    Em            Em    F#    G
e|--------------------0-------------------------0--------
B|------3-----3-----3---3---3-----3-----3-----3---3---3--
G|----0-----0-----0-------0-----0-----0-----0-------0---- x2
D|-------------------------------------------------------
A|-------------------------------------------------------
E|--3-----2-----0-------------0-----2-----3--------------

Verse:(do intro chords & plucking pattern)
Your smile is gently freezing
Snow throws it away
You're the laughter in my silence,
The crow that keeps me awake
Green towel less soft spoken
Toughts you never knew
The lies and empty promises
I gave them all to

Refrain:
    C           D             C               D
e|------0-----------2---2-------------0-------------2---2----
B|----3-3-3-------3-3---3---3-----3---3-3---3-----3-3---3----
G|------0-----0-----2-----------0---0-0-0---0---2---2--------
D|------2---2---0---0-0---0-----------2-------0-------0------
A|--3---3---------------------3-------3---3------------------
E|-----------------------------------------------------------

    you.How does it feel?             How is it that i can't feel?

      Bm                      C
e|--------------2-----2-----------------0-----0--------
B|--------3-------3-----3---3-----3-------3-----3---3--
G|------4---4-------------------0---0------------------
D|------------4-----4-----4-----------2-----2-----2----
A|--0-2-----------------------3------------------------
E|-----------------------------------------------------

  coz i,                      i need

    D               Dsus  D
e|----------2-----2---3-3---2---2--
B|------3---3-3---3---3-3---3---3--
G|----2---2------------------------
D|--0-----------0---0-----0---0----
A|---------------------------------
E|---------------------------------

 to know
[ Tab from: http://www.guitartabs.cc/tabs/s/sponge_cola/neon_tab.html ]
Chorus:
    G                 Em                Bm
e|----------3-----3-----------0-----0-----------2-----2-----------0-----0---
B|------3---3-3---3-------0---0-0---0-------3---3-3---3-------3---3-3---3---
G|----0---0-----0---0---0---0-----0-------4---4-----4-------0---0-----0-----
D|--------------------------------------------------------------------------
A|------------------------------------0-2---------------2-3-----------------
E|--3-----------------0-----------------------------------------------------

coz i,                i know i can never be enough to replace your whatever
and i,                i think it's shiny and blue like a dance that see through
coz i,                i know i can never be enough to replace your whatever
    Em(hold)                 D(hold)
now everything is silent and everything is still without you near

Intro...
Verse 2:(parang verse1)
Everything about you
The world was something new
And i was there in the open
well just to be with you
But every time i see the shelter
and every time i walk away
Your the laughter in my silence
the cold that feeds my day

Refrain...(pero strum na)
Chorus...(strum na rin pero power na ung last D)

Bridge:(power chords na to)
      Em   D    C
e|------------------------
B|------------------------
G|----9----7----5---------
D|----9----7----5---------
A|----7----5----3---------
E|------------------------

Em          D              C
  And every time i see you passing by
                                 D
i'll just stand here waiting for you
Em           D
  And i will talk to myself
     C                    
on a lazy sunday afternoon
    D-Em                    
And i'll still say that prayer for you
D
I'll be your everything, count on me
C                                   -D
I'll try to be so perfect you'll see
    Em                        -F#
But nothing can compare to you
D
whatever

e|--3p2-------2--
B|------3--------
G|--------2------
D|----------0----
A|---------------
E|---------------

    lies out there

Outro:(parang intro)

...there's no one here...
...there's no one here...
...there's no one here...
...there's no one here...
...there's no one here...
...there's no one here...
...there's no one here...
...there's no one...

(tapusin nyo ng isang strum pataas na G)





***	Hi sa mga IV-Tyre & IV-Judea batch 04'-05' 
	ng New Era University!!!

	At sa lahat ng mga taga-NEU na rin!...ASTIG TAYO!!!

***	Mabuhay ang O.P.M.!!!
Comments