Sponge Cola - Lunes Chords & Tabs

 

Lunes Chords & Tabs

Sponge Cola Chords & Tabs

Version: 4 Type: Tab 0 ratings
1 star 2 stars 3 stars 4 stars 5 stars
comments

Lunes Tab

   
----------------------------------------------------------------------------
			     Lunes - Sponge Cola
----------------------------------------------------------------------------
Tabbed by: Ricardo B. Bono II 

Email: superfly_182@yahoo.com
Tuning: Standard Tuning (E,A,D,G,B,E)

~ = Vibrato

INTRO & VERSE

e|----0------0----0------0------------------------------------------|
B|----1------1----1------1------------1------1------------3------3--|
G|------------------------------------2------2------------0------0--|
D|--3----3-3----3----3-3------------0----0-0------------------------|
A|------------------------------------------------------------------|
E|------------------------------------------------------3----3-3----|

e|----0------0----0------0---------------------------------|
B|----1------1----1------1------------1------1----------3--|
G|------------------------------------2------2----------0--|
D|--3----3-3----3----3-3------------0----0-0---------------|
A|---------------------------------------------------------|
E|------------------------------------------------------3--|


Pre-Chorus

Bumibilis...
e|--------------------------------------------------------|
B|--------------------------------------------------------|
G|--3-3-3-3-3-3-3-3-3-3-3-3-3-3-3-3-----7--7-7--7-7--7-7--|
D|--3-3-3-3-3-3-3-3-3-3-3-3-3-3-3-3-----7--7-7--7-7--7-7--|
A|--1-1-1-1-1-1-1-1-1-1-1-1-1-1-1-1-----5--5-5--5-5--5-5--|
E|--------------------------------------------------------|

e|---------------------------------------------|
B|---------------------------------------------|
G|--7-7-7-7--7-7--7-7-----5-5--5-5---5-5--5-5--|
D|--7-7-7-7--7-7--7-7-----5-5--5-5---5-5--5-5--|
A|--5-5-5-5--5-5--5-5-----3-3--3-3---3-3--3-3--|
E|---------------------------------------------|


CHORUS
[ Tab from: http://www.guitartabs.cc/tabs/s/sponge_cola/lunes_tab_ver_4.html ]
At ayokong magising...
e|------------------------------------------|
B|------------------------------------------|
G|------------5-5--5-5----------------------|
D|--3-3--3-3--5-5--5-5--7-7--7-7--5-5--5-5--| x2
A|--3-3--3-3--3-3--3-3--7-7--7-7--5-5--5-5--|
E|--1-1--1-1------------5-5--5-5--3-3--3-3--|


Bridge

e|-------------------------------------------|
B|-------------------------------------------|
G|-----------------------5-5--5-5--5-5--5-5--|
D|--3333-3333-3333-3333--5-5--5-5--5-5--5-5--| x2
A|--3333-3333-3333-3333--3-3--3-3--3-3--3-3--|
E|--1111-1111-1111-1111----------------------|


e|-------------------------------------------------|
B|-------------------------------------------------|
G|----3---3--3----2---2--2----7---7--7----5---5--5-|
D|-------------------------------------------------| x2
A|--111-111-11--000-000-00--555-555-55--333-333-33-|
E|-------------------------------------------------|

e|------------------------------------------------------------------------|
B|------------------------------------------------------------------------|
G|--------------------------------------5----7-5----7-5-------------------|
D|--------------5-----5-7---5-7-8---7-8----8------8-------7-8-7-5-7-5-----|
A|--5-7-8---7-8-----8-------------------------------------------------8~--|
E|------------------------------------------------------------------------|


e|----------------------------------------------|
B|----------------------------------------------|
G|-------------------------------------------7~-|
D|------------7-10~--9~--7~------------7-10~----|
A|-------7-10---------------------7-10----------|
E|--8-10---------------------8-10---------------|

OUTRO / ENDING

Hindi ko sinasadya...
e|-------------|
B|-------------|
G|--5---5---3--|
D|--5---5---3--|
A|--3---2---1--|
E|-------------|


============================================================================
Comments