Sponge Cola - Lunes Chords & Tabs

 

Lunes Chords & Tabs

Sponge Cola Chords & Tabs

Version: 3 Type: Tab 0 ratings
1 star 2 stars 3 stars 4 stars 5 stars
comments

Lunes Tab

   
#----------------------------------PLEASE NOTE---------------------------------#
#This file is the author's own work and represents their interpretation of the #
#song. You may only use this file for private study, scholarship, or research. #
#------------------------------------------------------------------------------#

Artist: Spongecola
Song: Lunes 
Album: Palabas
Track: 8
Year: 2004
Tabbed By: Janryck Lim (vj_janryck@yahoo.com)
Tuning: EADBGe (Standard)


Spongecola, is one of my favorite band. I bought the CD and listened to it.
For any corrections or suggestions, just email me. 


*Intro:

Guitar 1
FM7-Am-G
e|-------0----0----0----0---------------------||
B|-------1----1----1----1---1----1----3----3--|| 
G|-------2----2----2----2---2----2----0----0--||(Repeat) (listen for the strumming/plucking 
D|--0-3----33---3----33-----2----2----0----0--||         and the timing)
A|------------------------0---00--------------||
E|----------------------------------3---33----||

Guitar 2
e|----3-3---3---------------3------||
B|--------------6---5---6-----6-5--||
G|--5------------------------------||(play it after guitar 1 plays the intro the 2nd time)
D|---------------------------------||
A|---------------------------------||
E|---------------------------------||

*Verse:

FM7-Am-G
e|-------0----0----0----0---------------------||
B|-------1----1----1----1---1----1----3----3--|| 
G|-------2----2----2----2---2----2----0----0--||(Repeat) (listen for the strumming/plucking 
D|--0-3----33---3----33-----2----2----0----0--||         and the timing)
A|------------------------0---00--------------||
E|----------------------------------3---33----||

Ends at:

G
|-----||
|--3--||
|--0--||
|--0--||
|-----||
|--3--||
 
*Pre-Chorus 1:
     
    Bb                   Am                
e|--1111111111111111--|--0--00-00000---|
B|--3333333333333333--|--1--11-11111---|
G|--3333333333333333--|--2--22-22222---| (faster to slower)
D|--3333333333333333--|--2--22-22222---|
A|--1111111111111111--|--0--00-00000---|       
E|--------------------|----------------|
     bumibilis         kumakaripas naghihintay na

    Dm                   G  
e|--55-xx-55-xx-55-xx-55--|--33-xx-33-xx-33-xx-33---||
B|--66-xx-66-xx-66-xx-66--|--33-xx-33-xx-33-xx-33---||
G|--77-xx-77-xx-77-xx-77--|--44-xx-44-xx-44-xx-44---||(listen for the beat)
D|--77-xx-77-xx-77-xx-77--|--55-xx-55-xx-55-xx-55---||
A|--55-xx-55-xx-55-xx-55--|--55-xx-55-xx-55-xx-55---||   
E|------------------------|--33-xx-33-xx-33-xx-33---||
   lang kasama ang       ulan

***or you can use below if you want. they sound exactly the same.

e|--------------------|---------------|
B|--------------------|---------------|
G|--------------------|---------------|
D|--8888888888888888--|--7--77-77777--| (faster to slower)
A|--8888888888888888--|--7--55-55555--|
E|--6666666666666666--|--5--55-55555--|
    bumibilis          kumakaripas naghihintay na
  
e|------------------------|---------------------||
B|------------------------|---------------------||
G|--77-xx-77-xx-77-xx-77--|---------------------||
D|--77-xx-77-xx-77-xx-77--|--55-xx-55-xx-55-xx--||
A|--55-xx-55-xx-55-xx-55--|--55-xx-55-xx-55-xx--||
E|------------------------|--33-xx-33-xx-33-xx--||
    lang kasama ang      ulan

*Chorus:

F-Am-Dm-G
e|--11-xx-11-xx-33-xx-33-xx-00-xx-00-xx-33-xx-33-xx----||
B|--11-xx-11-xx-55-xx-55-xx-11-xx-11-xx-33-xx-33-xx----||
G|--22-xx-22-xx-55-xx-55-xx-22-xx-22-xx-00-xx-00-xx----|| (Repeat)
D|--33-xx-33-xx-55-xx-55-xx-22-xx-22-xx-00-xx-00-xx----||
A|--33-xx-33-xx-33-xx-33-xx-00-xx-00-xx-22-xx-22-xx----||
E|--11-xx-11-xx-------------------------33-xx-33-xx----||

*Verse:

FM7-Am-G
e|-------0----0----0----0---------------------||
B|-------1----1----1----1---1----1----3----3--|| 
G|-------2----2----2----2---2----2----0----0--||(Repeat) (listen for the strumming/plucking 
D|--0-3----33---3----33-----2----2----0----0--||         and the timing)
A|------------------------0---00--------------||
E|----------------------------------3---33----||

Ends at
G
|-----||
|--3--||
|--0--||
|--0--||
|-----||
|--3--||

*Pre-Chorus 2:
     
   Bb                   Am                
e|--1111111111111111--|--0--00-00000---|
B|--3333333333333333--|--1--11-11111---|
G|--3333333333333333--|--2--22-22222---| (faster to slower)
D|--3333333333333333--|--2--22-22222---|
A|--1111111111111111--|--0--00-00000---|       
E|--------------------|----------------|
    nangaaliw isang     pagdiriwang sa ilalim ng 

    Dm                   G  
e|--55-xx-55-xx-55-xx-55--|--33-xx-33-xx-33-xx-33---||
B|--66-xx-66-xx-66-xx-66--|--33-xx-33-xx-33-xx-33---||
G|--77-xx-77-xx-77-xx-77--|--44-xx-44-xx-44-xx-44---||(listen for the beat)
D|--77-xx-77-xx-77-xx-77--|--55-xx-55-xx-55-xx-55---||
A|--55-xx-55-xx-55-xx-55--|--55-xx-55-xx-55-xx-55---||   
E|------------------------|--33-xx-33-xx-33-xx-33---||
 bituin sa liwanag ng    buwan

***or the other alternative (See Pre-Chorus 1)

*Chorus:
[ Tab from: http://www.guitartabs.cc/tabs/s/sponge_cola/lunes_tab_ver_3.html ]
F-Am-Dm-G
e|--11-xx-11-xx-33-xx-33-xx-00-xx-00-xx-33-xx-33-xx----||
B|--11-xx-11-xx-5x-xx-55-xx-11-xx-11-xx-33-xx-33-xx----||
G|--22-xx-22-xx-55-xx-55-xx-22-xx-22-xx-00-xx-00-xx----|| (Repeat)
D|--33-xx-33-xx-55-xx-55-xx-22-xx-22-xx-00-xx-00-xx----||
A|--33-xx-33-xx-33-xx-33-xx-00-xx-00-xx-22-xx-22-xx----||
E|--11-xx-11-xx-------------------------33-xx-33-xx----||

*Bridge:

e|--1-1-1-1-1-1-1-1---33-3-33-3-33-3-33-3--||
B|--1-1-1-1-1-1-1-1---55-5-55-5-55-5-55-5--||
G|--2-2-2-2-2-2-2-2---55-5-55-5-55-5-55-5--|| (Repeat)
D|--3-3-3-3-3-3-3-3---55-5-55-5-55-5-55-5--||
A|--3-3-3-3-3-3-3-3---33-3-33-3-33-3-33-3--||
E|--1-1-1-1-1-1-1-1------------------------||

*Adlib 1:

Guitar 1:
e|---------------------|
B|---------------------|  
G|--333333--222222222--|
D|--333333--222222222--|
A|--111111--000000000--|
E|---------------------|
pm  .. ..   ... ..       (play until adlib 2)

e|--------------------||
B|--------------------||
G|--777777-555555555--|| 
D|--777777-555555555--||
A|--555555-333333333--||
E|--------------------||
pm  .. ..  ... ..

pm - palm mute

Guitar 2:

e|-------------------------------------------|
B|-------------------------------------------|
G|--7--9--9/10--9--10--10/12--10--12--12/14--|
D|-------------------------------------------|
A|--5--7--7/8---7--8---8/10---8---10--10/12--|
E|-------------------------------------------|

e|---------------------------------------------|
B|---------------------------------------------|
G|--12--14--14/15--14--15--17--15--17--15--17--| (play after guitar 1 played the adlib two times)
D|---------------------------------------------|
A|--10--12--12/13--12--13--15--13--15--13--15--|
E|---------------------------------------------|
        
e|---------------------------||
B|---------------------------||
G|--17-19-17-15-17-15-17-10--||
D|---------------------------||
A|--15-17-15-13-15-13-15--8--||
E|---------------------------||

*Adlib 2:

Guitar 1:

e|-------0----0----0----0---------------------||
B|-------1----1----1----1---1----1----3----3--|| 
G|-------2----2----2----2---2----2----0----0--||(Repeat) (listen for the strumming/plucking 
D|--0-3----33---3----33-----2----2----0----0--||         and the timing)
A|------------------------0---00--------------||
E|----------------------------------3---33----||

Guitar 2: 

e|---------------------------------------------||
B|---------------------------------------------||
G|------------5----4----2----------------5--7--||
D|------4-5-7----------------------4-5-7-------||
A|--5-7------------------------5-7-------------||
E|---------------------------------------------||

*Pre-Chorus:

    Bb                   Am                
e|--1111111111111111--|--0--00-00000---|
B|--3333333333333333--|--1--11-11111---|
G|--3333333333333333--|--2--22-22222---| (faster to slower)
D|--3333333333333333--|--2--22-22222---|
A|--1111111111111111--|--0--00-00000---|       
E|--------------------|----------------|
     bumibilis         kumakaripas naghihintay na

    Dm                   G  
e|--55-xx-55-xx-55-xx-55--|--33-xx-33-xx-33-xx-33---||
B|--66-xx-66-xx-66-xx-66--|--33-xx-33-xx-33-xx-33---||
G|--77-xx-77-xx-77-xx-77--|--44-xx-44-xx-44-xx-44---||(listen for the beat)
D|--77-xx-77-xx-77-xx-77--|--55-xx-55-xx-55-xx-55---||
A|--55-xx-55-xx-55-xx-55--|--55-xx-55-xx-55-xx-55---||   
E|------------------------|--33-xx-33-xx-33-xx-33---||
   lang kasama ang       ulan

***or the other alternative (See Pre-Chorus 1)

*Chorus:

F-Am-Dm-G
e|--11-xx-11-xx-33-xx-33-xx-00-xx-00-xx-33-xx-33-xx----||
B|--11-xx-11-xx-5x-xx-55-xx-11-xx-11-xx-33-xx-33-xx----||
G|--22-xx-22-xx-55-xx-55-xx-22-xx-22-xx-00-xx-00-xx----|| (Repeat)
D|--33-xx-33-xx-55-xx-55-xx-22-xx-22-xx-00-xx-00-xx----||
A|--33-xx-33-xx-33-xx-33-xx-00-xx-00-xx-22-xx-22-xx----||
E|--11-xx-11-xx-------------------------33-xx-33-xx----||

***Chorus Again

*Outro:

e|--1-1-1-1-1-1-1-1---33-3-33-3-33-3-33-3--|
B|--1-1-1-1-1-1-1-1---55-5-55-5-55-5-55-5--|
G|--2-2-2-2-2-2-2-2---55-5-55-5-55-5-55-5--|
D|--3-3-3-3-3-3-3-3---55-5-55-5-55-5-55-5--|
A|--3-3-3-3-3-3-3-3---33-3-33-3-33-3-33-3--|
E|--1-1-1-1-1-1-1-1------------------------|

e|--1-1-1-1-1-1-1-1---3--333--333--------||
B|--1-1-1-1-1-1-1-1---5--555--555--------||
G|--2-2-2-2-2-2-2-2---5--555--555-----3--||
D|--3-3-3-3-3-3-3-3---5--555--555--5--3--||
A|--3-3-3-3-3-3-3-3---3--333--333--2--1--||
E|--1-1-1-1-1-1-1-1----------------------||


Lyrics:

*Intro

*Verse:
dahan dahang lumalamig
unti-unting dumidilim
sa saliw ng yong pagtingin
ang oras ay

*Pre-Chorus:
bumibilis 
kumakaripas
naghihintay na lang
kasama ng ulan

*Chorus:
at ayokong magising 
sa umagang nangaakit mabuksan
naninimtim 
di alam 
walang patutunguhan

*verse:
di mapigilan ang pagngiti
paglaya mo'y minimithi
nagyayaya nang makisayaw
ang himig ay

*Pre-Chorus:
nangaaliw
isang pagdiriwang
sa ilalim ng bituin
sa liwanag ng buwan
 
*Chorus:
at ayokong magising 
sa umagang nangaakit mabuksan
naninimtim
di alam
walang patutunguhan

*Bridge:
ayoko na 
hindi sinasadya
hindi ko sinasadya

*Adlib 1
*Adlib 2
*Pre-Chorus
*Chorus (repeat)
*Outro
Comments