Sponge Cola - Lunes Chords & Tabs

 

Lunes Chords & Tabs

Sponge Cola Chords & Tabs

Version: 2 Type: Tab 0 ratings
1 star 2 stars 3 stars 4 stars 5 stars
comments

Lunes Tab

   
    '&' 
 B   #R   N
   Y #  O 
    _#_     1ST TAB KO..
   ( # )
   / O \
  ( === )
   `---'


INTRO

  FM7                                Am            G    
  -----0-----0-----|--0-------0-----|----------------|----------------|
B -----1-----1-----|--1-------1-----|----1-----1-----|--3---------3---| Repeat
A -----2-----2-----|--2-------2-----|----2-----2-----|--0---------0---| Twice
R -3---3-3-3-3---3-|--3---3---3-----|----2-----2-----|--0---------0---|
1 -----------------|----------------|0-----0-0-------|----------------|
  -----------------|----------------|--------------3-|------3-3-------|

  
  
  --------3-3---3-|----------------|
L ----------------|--6---5---6-----|
E ------5---------|----------------|
A ----------------|----------------|
D ----------------|----------------|
  ----------------|----------------|

  
  
STANZA 1 
  
  FM7                                Am            G    
  -----0-----0-----|--0-------0-----|----------------|----------------|
B -----1-----1-----|--1-------1-----|----1-----1-----|--3---------3---|
A -----2-----2-----|--2-------2-----|----2-----2-----|--0---------0---|
R -3---3-3-3-3---3-|--3---3---3-----|----2-----2-----|--0---------0---|
1 -----------------|----------------|0-----0-0-------|----------------|
  -----------------|----------------|--------------3-|------3-3-------|
         Dahan dahang          lumalamig  unti-unting dumidilim 

  
   
  
  FM7                                Am            G    
  -----0-----0-----|--0-------0-----|--------------3-|
B -----1-----1-----|--1-------1-----|----1-----1---3-|
A -----2-----2-----|--2-------2-----|----2-----2---0-|
R -3---3-3-3-3---3-|--3---3---3-----|----2-----2---0-|
2 -----------------|----------------|0-----0-0-----2-|
  -----------------|----------------|--------------3-|     
               Sa saliw ng yong pagtingin ang oras ay
  
  
  
  
(Refer To FIG.1)                          Bb    Am   Dm    G 
                                       ---1-----0----5-----3---|
       Bb                            F ---3-----1----6-----3---|
Bumibilis                            I ---3-----2----7-----4---|   
      Am                             G ---3-----2----7-----5---|
kumakaripas                          1 ---1-----0----5-----5---|        
               Dm                      --------------------3---|
naghihintay na lang                 
           G
kasama ng ulan                      
                                     



CHORUS (Refer to FIG. 2)
[ Tab from: http://www.guitartabs.cc/tabs/s/sponge_cola/lunes_tab_ver_2.html ]
    F          C                                F   C   Am  G  C/B  Bb
At ayokong magising                           --1---3---0---3---------|
    Am          G         F                 F --1---5---1---3---------|
sa umagang nangaakit mabuksan               I --2---5---2---0-------3-|
       C                                    G --3---5---2---0---5---3-|
naninimtim                                  2 --3---3---0---2---2---1-|
     Am                                       --1-----------3---------|
di alam
         G 
walang patutunguhan



STANZA 2 (DO BAR 1 AND BAR 2)

di mapigilan ang pagngiti 
paglaya mo'y minimithi
nagyayaya nang makisayaw
ang himig ay


      Bb
nangaaliw
           Am
isang pagdiriwang
               Dm  
sa ilalim ng bituin
                G
sa liwanag ng buwan 


DO CHORUS

(REFER TO FIG. 2)
F       C
  ayoko na
          F  
  hindi sinasadya
             C
  hindi ko sinasadya

  
  
ADLIB

  Bb       Am      Dm      C
  ---------------------------------|
B ---------------------------------| Repeat 
A -3-------2-------7-------5-------| Twice
R -3-------2-------7-------5-------|
3 -1-------0-------5-------3-------|
  ---------------------------------|


                    
  ---------|-------------------|-------------------|
B ---------|-------------------|-------------------|
A --7--9---|-9/--10---9----10--|-10/-12---10---12--|
R ---------|-------------------|-------------------|
4 --5--7---|-7/---8---7-----8--|-8/--10----8---10--|
  ---------|-------------------|-------------------|

  
  
  ---------------------|-------------------------|
B ---------------------|-------------------------|
A -12/-14---12----14---|14/-15------14---15--17--|
R ---------------------|-------------------------|
5 -10/-12---10----12---|12/-13------12---13--15--|
 ----------------------|-------------------------|

 
        
  -----------------|-------------|------------|--------|
B -----------------|-------------|------------|--------|
A --17-----15------|--15-----17--|----15---17-|---10---|
R -----------------|-------------|------------|--------|
6 --15-----13------|--13-----15--|----13---15-|----8---|
  -----------------|-------------|------------|--------|
      

DO BAR 1 AND BAR 2



  ------------------|---------------|----------------------|------------|
L ------------------|---------------|----------------------|------------|
E ------------------|--5/-----4/----|--2-------------------|---5----7---|
A ----------5---7---|---------------|--------------5---7---|------------|
D --5---7-----------|---------------|------5---7-----------|------------|
  ------------------|---------------|----------------------|------------|

       

    

      Bb
bumibilis
      Am
kumakaripas
               Dm
naghihintay na lang
           G
kasama ng ulan




DO CHORUS TWICE



(REFER TO FIG. 2)
F       C
  ayoko na
          F  
  hindi sinasadya
             C   C/B  Bb
  hindi ko sinasadya

BSTA GANYAN KO TUGTUGIN YON EH..
WALA KONG MAGAWA!! rate nyo nalaNG!!
HIPO..!!.. HEHE.. \m/ 
mabuhay ako..
Comments