Sponge Cola - Lunes Chords & Tabs

 

Lunes Chords & Tabs

Sponge Cola Chords & Tabs

Version: 1 Type: Tab 0 ratings
1 star 2 stars 3 stars 4 stars 5 stars
comments

Lunes Tab

------------------------------------------------------------------
                               Song: Lunes 
------------------------------------------------------------------
Artist: Spongecola
Tabbed by: Miguel Navarrete (miguel_navarrete2003@yahoo.com) - Special thanks to: Andrew Aniceto

Legend: strum upward: ^
Standard Tuning

Verse:
       ^   ^   ^   ^     ^   ^   ^   ^
e|----------------------------------------|
B|-----5---5---5---5-----5---5---5---5----|
G|-----4---4---4---4-----4---4---4---4----|
D|-----5---5---5---5-----5---5---5---5----|
A|-0-3---3---3---3------------------------|
E|-------------------0-5---5---3---3------|

Pre-Chorus: (listen for strumming)

e|--------------|----------------|---------------|------------|
B|--------------|----------------|---------------|------------|
G|--------------|----------------|--7------------|------------|
D|--8-----------|--7-------------|--7------------|--5---------|
A|--8-----------|--7-------------|--5------------|--5---------|
E|--6-----------|--5-------------|---------------|--3---------|
Bumibilis......  Kumakalipas....  Naghihintay.... Kasama...
[ Tab from: http://www.guitartabs.cc/tabs/s/sponge_cola/lunes_tab.html ]
Chorus: (listen for strumming)

e|-------------|---------------|------------|
B|-------------|---------------|------------|
G|--5----------|---------------|------------|
D|--5----------|--7------------|--5---------|
A|--3----------|--7------------|--5---------|
E|-------------|--5------------|--3---------|
At ayokong.....  Sa umagang.... ..aakit mabuksan...

Pre-Bridge: (listen for strumming)

e|------------------|
B|------------------|
G|--5---------------| 	(repeat)
D|--5----------7----|
A|--3----------7----|
E|-------------5----|
Ayoko ng....    
Di sinasadya...

Bridge: (listen for strumming; you can palm mute-it sounds better)

e|---------------------------|
B|--------1------------------|
G|--3-----2-----7-----5------|
D|--3-----2-----7-----5------|
A|--1-----------5-----3------|
E|---------------------------|

-solo comes in during the bridge and lasts before the last chorus, 
during that period, use the chords of the verse to back up the 
remainder of the solo.-

Song order:

Verse
Pre-Chorus
Chorus
Verse
Pre-Chorus
Chorus
Pre-Bridge
Bridge
Verse (to back up remainder of solo before final chorus)
Pre-Chorus
Chorus (till end)
Comments