Sponge Cola - Lunes Chords & Tabs

 

Lunes Chords & Tabs

Sponge Cola Chords & Tabs

Version: 1 Type: Bass Tab 0 ratings
1 star 2 stars 3 stars 4 stars 5 stars
comments

Lunes Bass Tab

   
hello, this is my first time to submit a tab, and i only made this tab, not
sure if this is the same or is similar to the one that the band plays, hope u lyk it =P

standard tuning E A D G

Intro (x2)
G|------------------------------------------------------|
D|------------------------------------------------------|
A|---3-----3-----3-----3-3/7---7-----7----5-5---5---5---|
E|-1---0-1---1-1---0-1-------5---5-5---\3-----3---3-----|

Verse (x2) (same as intro)

Pre-chorus
G|-------------------------------------------|
D|-------------------------------------------|
A|-1(16x)0(16x)----5550h555-5(x8)0-----------|
E|---------------------------------3(10x)12\-|
[ Tab from: http://www.guitartabs.cc/tabs/s/sponge_cola/lunes_btab.html ]
Chorus
G|-----------------------------------|         order:
D|-----------------------------------|         intro        x2
A|--------3-3p0-3-33-0-0-00----------|         verse        x2
E|-1-1-11-------------------3-3p0-33-|         pre-chorus   x1
                                               chorus       x2
Refrain                                        verse        x2
G|------------------|                          pre-chorus   x1
D|------------------|                          chorus       x2
A|-------3-3-333-33-|                          refrain      x2
E|-1(16x)-----------|                          bridge       x4
                                               verse        x2
Bridge                                         pre-chorus   x1
G|------------------------------------------|  chorus       x4
D|------------------------------------------|  ending       x1
A|-1-1-1-0h1-11-0x000x00-555-0h555-3-3-3-33-|
E|------------------------------------------|

Ending (2x)
G|--------------------------------------|
D|--------------------------------------|
A|-------3-3-333-33-------3-32-2h3p2-1--|
E|-1(16x)-----------1(16x)--------------|

-timarts C=
Comments