Sponge Cola - Lunes Acoustic Chords & Tabs

 

Lunes Acoustic Chords & Tabs

Sponge Cola Chords & Tabs

Version: 1 Type: Tab 0 ratings
1 star 2 stars 3 stars 4 stars 5 stars
comments

Lunes Acoustic Tab

   
LUNES - SPONGE COLA (Acoustic)

Transcribed by: Taracatac17dlsu
Date: 10/25/04

This is my first tab - please rate!!
I love this song


Intro/Verse

	       FM7			     Am	     G

E -----0-------0-----0-------0-----------------------3-------------|
B -----1-------1-----1-------1-------------0h1p0-----3-----0-0h1p0-|
G -----2-------2-----2-------2----------2--------------------------|
D --3-----3-3-----3-----3-3----------2-----------------------------| (2x)
A --------------------------------0--------------------------------|
E ---------------------------------------------------3-------------|

Refrain

     Bb       A9   G	 ?     D7      G
[ Tab from: http://www.guitartabs.cc/tabs/s/sponge_cola/lunes_acoustic_tab.html ]
E -----------------33----------5-------3--------x----------|
B------------------33---55-----6-------3--------x----------|
G--33--------2-2--------44-----5-(8x)----(8x)---x-(rest)---|
D--33-(4x-)--2-2---------------7----------------x----------|
A--11--------0-0---22---22-----5-------2--------x----------|
E------------------33---xx-----x-------3--------x----------|

Chorus/Bridge

   F   C   Am  G

E--1----------3---------|
B--1---1---1--3---------|
G--2---0---2------------| (guess the strumming yourself)
D--3---2---2------------|
A--3---3------2---------|
E--1----------3---------|

(verse)
(refrain)
(chorus)
(bridge) Ayoko na...di ko sinasadya..etc

Adlib

E------------------------5-5--555-5---3-3--333-55----|
B------------------------6-6--888-6---4-4--666-55----|
G--3--2--7--5------3--2--7-7--555-7---5-5--333-55----|(strum powerchords 8x
D--3--2--7--5-(2x)-3--2--7-7--777-7---5-5--555-55----|     each)
A--1--0--5--3------1--0--5-5------5---3-3------33----|
E----------------------------------------------------|

(verse)
(refrain)
(chorus)
(bridge)

E --0--
B --1--
G --2-- WAKAS!! hope its good enough
D --3--
A -----
E -----
Comments