Sponge Cola - Klsp Chords & Tabs

 

Klsp Chords & Tabs

Sponge Cola Chords & Tabs

Version: 5 Type: Tab 0 ratings
1 star 2 stars 3 stars 4 stars 5 stars
comments

Klsp Tab

   

Intro
|-------------------------------------|
|--------11---------------------------|
|--10/12-----12-10-----10--12b--------|(X4)
|-------------------13----------------|
|-------------------------------------|
|-------------------------------------|

chords in the song
Bb                      
|--6---------|          
|--6---------|     
|--7---------|
|--8---------|
|--8---------|
|--6---------|

A/F
|----5---------|
|----6---------|
|----5---------|
|----7---------|
|----8---------|
|----5---------|

Gm
|-3-----|
|-3-----|
|-3-----|
|-5-----|
|-5-----|
|-3-----|

F#
|--2-------------|
|--2-------------|
|--3-------------|
|--4-------------|
|--4-------------|
|--2-------------|

G#
|---4-------------|
|---4-------------|
|---5-------------|
|---6-------------|
|---6-------------|
|---4-------------|

E
|---0-----|
|---0-----|
|---1-----|
|---2-----|
|---2-----|
|---0-----|

C#m
|-4--------|
|-5--------|
|-6--------|
|-6--------|
|-4--------|
|-X--------|

A
|--0---|
|--2---|
|--2---|
|--2---|
|--0---|
|--X---|

B
|--7--|
|--7--|
|--8--|
|--9--|
|--9--|
|--7--|

Ab
|----4------|
|----4------|
|----5------|
|----6------|
|----6------|
|----4------|


   Bb       Gm
Sino 'tong nakatingin?
  Bb        Gm
Anghel bang magliligtas sa'kin?
  Bb      Gm         F#     G#    Bb   
Mga mata'y kanyang minulat sa pagdadalamhati
 Bb        Gm
Hinahanap sa kung saan
  Bb      Gm
Pakpak na hindi mahagilap
 Bb      Gm      F#   G#
Ninanais ko lang naman na maging ganap
[ Tab from: http://www.guitartabs.cc/tabs/s/sponge_cola/klsp_tab_ver_5.html ]
(Chorus)
  Bb      A/F    Gm
Kailangan lang pagbigyan
 F#         G#    Bb
Kulang lang sa pansin

 Bb     Gm
Naghahanap ka pa ba?
 Bb       Gm
Ng ibang taga lupa?
 Bb     Gm          F#      G# 
Aking tinig ay iyong dinggin

(Chorus)
 Bb     A/F    Gm
Kailangan lang pagbigyan
 F#    G#    Bb
Kulang lang sa pansin
Bb     A/F    Gm
Kailangan lang pagbigyan
F#    G#    Bb
Kulang lang sa pansin
   E          C#m
Nauubos din ang luha
 E     C#m    A
Natutuyo at nawawala
 B          Ab
Naglalaho din pala

Solo:

|-------------------------------------|
|--------11---------------------------|
|--10/12-----12-10-----10--12b--------|(X4)
|-------------------13----------------|
|-------------------------------------|
|-------------------------------------|

|------13-10----------------|
|---11-------10-----10--11--|
|----------------12---------|
|---------------------------|
|---------------------------|
|---------------------------|



tapos eto yung lead guitar sa chorus ni armo..  B
|----------------------------------|
|------11--------------------------|
|---10----10------------------10---|X8
|---------------13--12--13---------|
|----------------------------------|
|----------------------------------|
(Chorus)
Kailangan lang pagbigyan
Kulang lang sa pansin
Kailangan lang pagbigyan
Kulang lang sa pansin


 Bb               A/F  
Kulang lang sa... Kulang lang sa pansin....
 Gm               F#   G# 
Kulang lang sa...

TAPOS NA RIN!!!! KUNG PWEDE PAKI RATE.........
Comments