Sponge Cola - Klsp Chords & Tabs

 

Klsp Chords & Tabs

Sponge Cola Chords & Tabs

Version: 4 Type: Tab 0 ratings
1 star 2 stars 3 stars 4 stars 5 stars
comments

Klsp Tab

#----------------------------------PLEASE NOTE---------------------------------#
#This file is the author's own work and represents their interpretation of the #
#song. You may only use this file for private study, scholarship, or research. #
#------------------------------------------------------------------------------#

Artist: Spongecola
Song: KLSP
Album: Palabas
Track: 3
Year: 2004
Tabbed By: Janryck Lim (vj_janryck@yahoo.com)
Tuning: EADBGe (Standard)


Notes: There are bass parts in the verses.
       Its not actually the guitar that plays the verse parts.

Intro:

Guitar 1:
e|-----------------------|
B|-----12----------------| 
G|--/8----8-----------8--|
D|----------11-9-9h11----|
A|-----------------------|
E|-----------------------|

e|-----------------------|
B|-----12----------------|(Repeat 7X) 
G|---8----8-----------8--|
D|----------11-9-9h11----|
A|-----------------------|
E|-----------------------|

Guitar 2: (Repeat 2x)
e|--------------------------------------------------------|
B|--------------------------------------------------------|
G|--------------------------------------------------------|
D|--999999999999-888888888888-666666666666-555555-777777--|
A|--999999999999-888888888888-666666666666-555555-777777--|
E|--777777777777-666666666666-444444444444-333333-555555--|

Guitar 1 & 2:
e|----------------|
B|----------------|
G|--9----------9--|
A|--9----------9--|
E|--7-----7-7--7--|

Verse: 
Bass Part:
G|-----------------------|
D|-----------------------| (Repeat 3x)
A|-----------------------| 
E|--77777777--444444444--|

Guitar Part:
e|------------------|
B|------------------|
G|------------------|
D|--555555--777777--|
A|--555555--777777--|
E|--333333--555555--|

Bass Part:
G|-----------------------|
D|-----------------------| (Repeat 3x)
A|-----------------------| 
E|--77777777--444444444--|

Guitar Part:
e|------------------|
B|------------------|
G|------------------|
D|--555555--777777--|
A|--555555--777777--|
E|--333333--555555--|

Chorus:
e|--------------------------------------------------------|
B|--------------------------------------------------------|
G|--------------------------------------------------------|
D|--999999999999-888888888888-666666666666-555555-777777--|
A|--999999999999-888888888888-666666666666-555555-777777--|
E|--777777777777-666666666666-444444444444-333333-555555--|
[ Tab from: http://www.guitartabs.cc/tabs/s/sponge_cola/klsp_tab_ver_4.html ]
e|-------------------------------|
B|-------------------------------|
G|-------------------------------|
D|--9-------99-xx-99-xx-99-xx-9--|
A|--9-------99-xx-99-xx-99-xx-9--|
E|--7-------77-xx-77-xx-77-xx-7--|

Verse: 
Bass Part:
G|-----------------------|
D|-----------------------| (Repeat 3x)
A|-----------------------| 
E|--77777777--444444444--|

Guitar Part:
e|------------------|
B|------------------|
G|------------------|
D|--555555--777777--|
A|--555555--777777--|
E|--333333--555555--|

Bass Part:
G|-----------------------|
D|-----------------------| (Repeat 3x)
A|-----------------------| 
E|--77777777--444444444--|

Guitar Part:
e|------------------|
B|------------------|
G|------------------|
D|--555555--777777--|
A|--555555--777777--|
E|--333333--555555--|

Chorus: (Repeat 2X)
e|--------------------------------------------------------|
B|--------------------------------------------------------|
G|--------------------------------------------------------|
D|--999999999999-888888888888-666666666666-555555-777777--|
A|--999999999999-888888888888-666666666666-555555-777777--|
E|--777777777777-666666666666-444444444444-333333-555555--|

Bridge:
e|-------------------------------------------------------|
B|-------------------------------------------------------|
G|-------------------------------------------------------|
D|--333333333333-555555555555-333333333333-555555555555--|
A|--333333333333-555555555555-111111111111-555555555555--|
E|--111111111111-333333333333-111111111111-333333333333--|

e|--------------------------------|
B|--------------------------------| (" - strum)
G|--------------------------------|  
D|--888888888888-10"""""""""""-7--|
A|--888888888888-10"""""""""""-7--|
E|--666666666666-8""""""""""""-5--|

Solo:
e|-----------------------|
B|-----12----------------| 
G|--/8----8-----------8--|
D|----------11-9-9h11----|
A|-----------------------|
E|-----------------------|

e|-----------------------|
B|-----12----------------|(Repeat 3X) 
G|---8----8-----------8--|
D|----------11-9-9h11----|
A|-----------------------|
E|-----------------------|

e|-----14--------------------------|
B|--12----12------------12-----\7--| (Repeat 4x)
G|-----------15-13-13h15-----------|
D|---------------------------------|
A|---------------------------------|
E|---------------------------------|

Chorus/Outro: (Repeat 2x)
e|--------------------------------------------------------|
B|--------------------------------------------------------|
G|--------------------------------------------------------|
D|--999999999999-888888888888-666666666666-555555-777777--|
A|--999999999999-888888888888-666666666666-555555-777777--|
E|--777777777777-666666666666-444444444444-333333-555555--|



Comments