Sponge Cola - Klsp Chords & Tabs

 

Klsp Chords & Tabs

Sponge Cola Chords & Tabs

Version: 3 Type: Tab 0 ratings
1 star 2 stars 3 stars 4 stars 5 stars
comments

Klsp Tab

                        "KLSP" BY SPONGE COLA
                        trancribed by: freon
                  visit me at: freongang_81@yahoo.com 
                       freongang_08@yahoo.com

                  """PARA SA MGA TAGA SPHINX TO"""
                            "KLSP KYO"
                    (KULANG LANG SA PULUTAN)


 intro:       X3                then proceed here
e|---------------------------  ----------------------------|
B|-----10/13-----------------  ----10/13-------------------|
G|--9b--------12-10-9--10-12-  -9b--------12-10-9--9h10-12-|  X2
D|---------------------------  ----------------------------|
A|---------------------------  ----------------------------|
E|---------------------------  ----------------------------|

e|--------------------------------------|
B|-(let ring)---------------------------|
G|-5------------5-------5---------------|
D|-5------------5-------5-(let ring)----|
A|-3------------3-------3---------------|
E|-----------------0-0--0---------------|
[ Tab from: http://www.guitartabs.cc/tabs/s/sponge_cola/klsp_tab_ver_3.html ]
 sino ba 'tong nakatingin...
e|------------------------------------|
B|-(let ring)-------------------------|
G|--5---------------------------------|tapat nyo electric guitar sa amp.
D|--5---------------------------------|
A|--3---------------------------------|
E|------------------------------------|

 mga mata'y kanyang minulat...
e|--------------------------------------------|
B|--------------------------------------------|
G|-5-5-5-5------------------5-----------------|
D|-5-5-5-5-6-6-6-6-8-8-8-8--5-(let ring)------|
A|-3-3-3-3-6-6-6-6-8-8-8-8--3-----------------|
E|---------4-4-4-4-6-6-6-6--------------------|

chorus:
 kailangan lang pagbiyan... (lyrics sa sphinx " kailangan lang magbilyar")
e|------------------------------------------------------------|
B|------------------------------------------------------------|
G|-5-5-5-5----------------------------------------------5-----|
D|-5-5-5-5-6-6-6-6-5-5-5-5-4-4-4-4-6-6-6-6/8-8-8-8-8----5-----|
A|-3-3-3-3-6-6-6-6-5-5-5-5-4-4-4-4-6-6-6-6/8-8-8-8-8----3-----|
E|---------4-4-4-4-3-3-3-3-2-2-2-2-4-4-4-4/6-6-6-6-6----------|

 outro:       X3                then proceed here
e|---------------------------  -------------------------------|
B|-----10/13-----------------  ----10/13----------------------|
G|--9b--------12-10-9--10-12-  -9b--------12-10-9--9h10-12----|  X2
D|---------------------------  -------------------------------|
A|---------------------------  -------------------------------|
E|---------------------------  -------------------------------|

                   "REST IN PEACE....... SPHINX"
Comments