Sponge Cola - Klsp Chords & Tabs

 

Klsp Chords & Tabs

Sponge Cola Chords & Tabs

Version: 2 Type: Tab 0 ratings
1 star 2 stars 3 stars 4 stars 5 stars
comments

Klsp Tab

Klsp
Sponge Cola

Klsp by sponge cola

Intro

E-----------------------------------------------------------|
B---------9-s-11--------------------------------------------|
G------7-------------7--5-----------7-----------------------|x3
D--------------------------8---10---------------------------|
A-----------------------------------------------------------|
E-----------------------------------------------------------|

E-----------------------------------------------------------|
B---------9-s-11--------------------------------------------|
G------7-------------7--5-----------7-----------------------|once
D--------------------------8-8h10---------------------------|
A-----------------------------------------------------------|
E-----------------------------------------------------------|

*ung plucking 2 times tas..

E----------------------------------------------------------|
B----------------------------------------------------------|
G----------------------------------------------------------|
D------8---888---------------------------------------------|
A------8---888---------------------------------------------|
E------6---666---------------------------------------------|


Verse 1

E----------------------------------------------------------|
B----------------------------------------------------------|
G----------------------------------------------------------|
D------8--5--8--5--8--5--4--6------------------------------|
A------8--5--8--5--8--5--4--6--x2--------------------------|
E------6--3--6--3--6--3--2--4------------------------------|

*ung sa pangalawang set, ung sa last chord parang mas madami ung pag strum nya...

Chorus

E----------------------------------------------------------|
B----------------------------------------------------------|
G----------------------------------------------------------|
D------8--7--5--4--6---------------------------------------|
A------8--7--5--4--6---------------------------------------|
E------6--5--3--2--4---------------------------------------|

*just listen and figure out the struming urself!! :d (hirap mag tab noh!)

Verse 2

E----------------------------------------------------------|
B----------------------------------------------------------|
G----------------------------------------------------------|
D------8--5--8--5--8--5--4--6------------------------------|
A------8--5--8--5--8--5--4--6------------------------------|
E------6--3--6--3--6--3--2--4------------------------------|

*isang beses nalang

Chorus
[ Tab from: http://www.guitartabs.cc/tabs/s/sponge_cola/klsp_tab_ver_2.html ]
E----------------------------------------------------------|
B----------------------------------------------------------|
G----------------------------------------------------------|
D------8--7--5--4--6---------------------------------------|
A------8--7--5--4--6---------------------------------------|
E------6--5--3--2--4---------------------------------------|

*eto, dalawang beses na

Bridge part

E----------------------------------------------------------|
B----------------------------------------------------------|
G----------------------------------------------------------|
D--2--5--2--5---8---10---7---------------------------------|
A--2--5--2--5---8---10---7---------------------------------|
E--0--3--0--3---6---8----5---------------------------------|

Solo/lead part

E-----------------------------------------------------------|
B---------9-s-11--------------------------------------------|
G------7-------------7--5-----------7-----------------------|x3
D--------------------------8---10---------------------------|
A-----------------------------------------------------------|
E-----------------------------------------------------------|

E-----------------------------------------------------------|
B---------9-s-11--------------------------------------------|
G------7-------------7--5-----------7-----------------------|once
D--------------------------8-8h10---------------------------|
A-----------------------------------------------------------|
E-----------------------------------------------------------|

*tas sa second part eto parin pro ung second guitars ganito..

E--------13-------------------------------------------------|
B---11---------11---10---------------11---------------------|
G------------------------12----14---------------------------|x4
D-----------------------------------------------------------|
A-----------------------------------------------------------|
E-----------------------------------------------------------|

Chorus

E----------------------------------------------------------|
B----------------------------------------------------------|
G----------------------------------------------------------|
D------8--7--5--4--6---------------------------------------|
A------8--7--5--4--6---------------------------------------|
E------6--5--3--2--4---------------------------------------|

*dalawang beses ulit

Outro

E----------------------------------------------------------|
B----------------------------------------------------------|
G----------------------------------------------------------|
D------8--7--5--4--66666-----------------------------------|
A------8--7--5--4--66666-----------------------------------|
E------6--5--3--2--44444-----------------------------------|
Comments