Sponge Cola - Klsp Chords & Tabs

 

Klsp Chords & Tabs

Sponge Cola Chords & Tabs

Version: 1 Type: Tab 0 ratings
1 star 2 stars 3 stars 4 stars 5 stars
comments

Klsp Tab

   
spongecola - KLSP



intro:


e|----8------------------
B|--5----5--3-----3---5--
G|-------------5---------   3x   
D|-----------------------
A|-----------------------
E|-----------------------


e|----8--------------------
B|--5----5--3-----3h5---5--
G|-------------5-----------   1x  
D|-------------------------   pagkatapos nito, ulitin nyo ulit ung nasa taas
A|-------------------------   ng 3 times tapos eto ulit...
E|-------------------------



verse 1:

A    E           F#m
Sino tong nakatingin?

                D
Anghel bang magliligtas sa kin

A   E              F#m
Mga mata'y kanyang minulat sa pagdadalamhati

verse 2:

A        E         F#m
Hinahanap sa kung saan

         D               A
Pakpak na hindi mahagilap

       E            F#m
"Ninanais ko lang naman na maging ganap"



chorus:


A         E          F#m
Kailangan lang pagbigyan
             
            D
Kulang lang sa pansin


verse:

[ Tab from: http://www.guitartabs.cc/tabs/s/sponge_cola/klsp_tab.html ]
A      E         F#m
Maghahanap ka pa ba

     D            A
Ng ibang taga-lupa

         E                F#m
"Aking tinig ay iyong dinggin"


chorus:

A         E           F#m
Kailangan lang pagbigyan

            D
Kulang lang sa pansin


bridge:

Em        c        Em
Mauubos din ang luha

        c            Em
Natutuyo at nawawala

c          A
Naglalaho rin pala


...pakinggan nyo nalang ung kanta para sa strumming...


solo:

ganon din katulad nung sa intro...


e|----8------------------
B|--5----5--3-----3---5--
G|-------------5---------   3x   
D|-----------------------
A|-----------------------
E|-----------------------


e|----8--------------------
B|--5----5--3-----3h5---5--
G|-------------5-----------   1 beses lang   
D|-------------------------   tapos ulitin nyo ulit ung nasa taas...
A|-------------------------   
E|-------------------------



chorus:

A         E          F#m
Kailangan lang pagbigyan

            D
Kulang lang sa pansin







Comments