Sponge Cola - Klsp Chords & Tabs

 

Klsp Chords & Tabs

Sponge Cola Chords & Tabs

Version: 6 Type: Chords 0 ratings
1 star 2 stars 3 stars 4 stars 5 stars
comments

Klsp Chords

   
KLSP
Sponge Cola
Tab by: Walter Michael De la CRuz - SLU Baguio City - 09224012464

Note: Try this mga dude.. Its absolutely 100% correct

-Use Power chords -


Chords used:

      Bb                  Gm                  F              Eb
 |-----1-----|        |----3-----|       |----X----|     |---X----|
 |-----1-----|        |----3-----|       |----X----|     |---X----|
 |-----3-----|        |----3-----|       |----2----|     |---8----|
 |-----3-----|        |----5-----|       |----3----|     |---8----|
 |-----1-----|        |----5-----|       |----3----|     |---6----|
 |-----X-----|        |----3-----|       |----1----|     |--------|


       F#                  G#                Dm7          
 |-----X-----|        |----X-----|       |----5----|     
 |-----X-----|        |----X-----|       |----6----|     
 |-----x-----|        |----X-----|       |----5----|    
 |-----4-----|        |----6-----|       |----7----|     
 |-----4-----|        |----6-----|       |----5----|     
 |-----2-----|        |----4-----|       |----X----|     


Verse 1:

Bb    Gm        F
Sino tong nakatingin?
                
                Eb
Anghel bang magliligtas sa kin
[ Tab from: http://www.guitartabs.cc/tabs/s/sponge_cola/klsp_crd_ver_6.html ]
Bb     Gm               F#-G#      
Mga mata'y kanyang  minulat sa pagdadalamhati


Bb     Gm           F               
Hinahanap sa kung saan

             Eb
Pakpak na hindi mahagilap

Bb     Gm             F#-G#
"ninanais ko lang naman na maging ganap"

chorus:

 Bb        Dm          Gm
 Kailangan lang pagbigyan
             F# - G#           
 Kulang lang sa pansin..


Bb      Gm        F              
Maghahanap ka pa ba

       Eb
Ng ibang taga-lupa

Bb       Gm             F# - G#              
"aking tinig ay iyong dinggin"


chorus:

 Bb        Dm          Gm
 Kailangan lang pagbigyan
             F# - G#           
 Kulang lang sa pansin..


E        A         E
Mauubos din ang luha
  G#               Bb
Natutuyo at nawawala

              C-A
Naglalaho rin pala.

chorus:

 Bb        Dm          Gm
 Kailangan lang pagbigyan
             F# - G#           
 Kulang lang sa pansin..


Comments,questions?? send me a message in friendster at Walterfdelacruz@yahoo.com or you 
text me or call me at 09224012464
Comments