Sponge Cola - Klsp Chords & Tabs

 

Klsp Chords & Tabs

Sponge Cola Chords & Tabs

Version: 1 Type: Chords 1 rating
1 star 2 stars 3 stars 4 stars 5 stars
comments

Klsp Chords

   
Title:	KLSP
Artist:	Sponge Cola
Tabbed by:
	Marci "DaMars" San Diego

		08/07/05

Para sa mga papansin!...:)



Chords:(standard tuning) 
Bb    |688xxx|	E     |022xxx|
A/Bb  |588xxx|	C#m   |x466xx|
Gm    |355xxx|	A     |577xxx|
F#    |244xxx|	B     |799xxx|
G#    |466xxx|	

Intro: Bb A/Bb Gm F#-G#

e|-------------------------
B|------11-----------------
G|------------------------- x4
D|--~12----12-10-8-10-12---
A|-------------------------
E|-------------------------

Verse:(bass lang dapat 'to pero eto ung chords)
Bb          Gm          
  Sino 'tong nakatingin?
Bb                 Gm
  Anghel bang magliligtas sa'kin
Bb          Gm       F#            G#
  Mga mata'y kanyang minulat sa pagdadalamhati

Hinahanap sa kung saan
Pakpak na hindi mahagilap
"Ninanais ko lang naman na maging ganap"
[ Tab from: http://www.guitartabs.cc/tabs/s/sponge_cola/klsp_crd.html ]
Chorus:
Bb          A/Bb       Gm
  Kailangan lang pagbigyan
            F#    G#
Kulang lang sa pansin

Verse 2:(do verse chords)
Nakahanap ka pa ba
ng ibang taga-lupa?
"Aking tinig ay iyong dinggin"

Chorus...
Chorus...

Bridge:
E       C#m
 Nauubos din ang luha,
E           C#m    A
 natutuyo at nawawala
B              G#
 Naglalaho din pala

Adlib:

e|-------------------------
B|------11-----------------
G|------------------------- x4
D|--~12----12-10-8-10-12---
A|-------------------------
E|-------------------------

e|-----13-----------------
B|--11-11-11-10-8-10-11---
G|------------------------ x4
D|--12----12-10-8-10-12---
A|------------------------
E|------------------------

Chorus...(i-fill ung intro)

Bb
Kulang lang sa...
A/Bb
Kulang lang sa pansin!
Gm               F#-G#
Kulang lang sa...



Ang banda naming walang pangalan sa kasalukuyan
	ay binubuo nila:

RB Bugarin	-Lead Vocals/Rhythms
Raymond Vallejo -Lead Guitarist
Marci San Diego -Bassist
Marco Nicolas	-Drums 

ASTIG!!!!!!!!!!!!!!!!!!!!!!!!!!!!!!!!!!!!!!!!!!
Comments