Sponge Cola - Jeepney Chords & Tabs

 

Jeepney Chords & Tabs

Sponge Cola Chords & Tabs

Version: 1 Type: Tab 0 ratings
1 star 2 stars 3 stars 4 stars 5 stars
comments

Jeepney Tab

   
intro:

e-------5--------3------------------------------|
b-------7--------3------------------------------|
g-------6--------4------------------------------|
d-------7---and--5------------------------------|
a-------5--------5------------------------------|
e-------5--------3------------------------------|

verses:

e---5-----5-----3-----5------------------------------|
b---7-----5-----3-----5------------------------------|
g---6-----6-----4-----6------------------------------|
d---7-----7-----5-----7------------------------------|
a---5-----7-----5-----7------------------------------|
e---5-----5-----3-----5------------------------------|

pre-chorus:

e--3-------5------------------------------------|
b--3-------5------------------------------------|
g--4-------6------------------------------------|
d--5-------7------------------------------------|
a--5-------7------------------------------------|
e--3-------5------------------------------------|

chrorus:
[ Tab from: http://www.guitartabs.cc/tabs/s/sponge_cola/jeepney_tab.html ]
e---5-----5-----3-----5------------------------------|
b---7-----5-----3-----5------------------------------|
g---6-----6-----4-----6------------------------------|
d---7-----7-----5-----7------------------------------|
a---5-----7-----5-----7------------------------------|
e---5-----5-----3-----5------------------------------|

bridge:

e---5-----5-----3-----5------------------------------|
b---7-----5-----3-----5------------------------------|
g---6-----6-----4-----6------------------------------|
d---7-----7-----5-----7------------------------------|
a---5-----7-----5-----7------------------------------|
e---5-----5-----3-----5------------------------------| (just play it quietly)


OR:


intro:

D7 and G

verses:

D A G A

pre-chorus:

G A

chrous:
D A G A

bridge:
D A G A

Tabbed by:
Raffy Ronquillo
kng my problems...luk 4 mi in frendster
Comments