Sponge Cola - Gemini Chords & Tabs

 

Gemini Chords & Tabs

Sponge Cola Chords & Tabs

Version: 3 Type: Tab 0 ratings
1 star 2 stars 3 stars 4 stars 5 stars
comments

Gemini Tab

   
GEMINI  by Sponge Cola
Tabbed by: apong_makulit@yahoo.com 

Intro: C9 (plucked)

e|---------------------3-------------|
B|----------3------------3-----------|
G|------------0----------------------|
D|-------2--------2------------------|    
A|-----3--------3--------------------|
E|-----------------------------------|

Verse 1:
     Come a little closer
e|---------------------3-------|
B|----------3------------3- ---|
G|------------0----------------|
D|-------2--------2------------| 
A|-----3--------3--------------|
E|-----------------------------|
      Flicker in flight...
e|-------------------------------3----------------3----|
B|---------3------3-------3--------3------3---------3--|
G|-----------0------0-------0---------------0----------|
D|-------2------2-------2------2--------2-------2------| 
A|-----3------3-------3------3--------3-------3--------|
E|-----------------------------------------------------|
       We'll have about an inch space
e|-------------------3----------|
B|----------3----------3--------|
G|------------0-----------------|
D|-------2--------2-------------| 
A|-----3--------3---------------|
E|------------------------------|
  But I'm here      I can                  
e|---------------|--------------|
B|-------3---3---|-----3---3----|
G|------------0--|----------0---|
D|----2----2-----|---2----2-----|
A|--3----3-------|-3----3-------|
E|---------------|--------------|
  Breathe in           what you.. 
e|---------------|--------------|
B|-------3---3---|-----3---3----|
G|------------0--|----------0---|
D|----2----2-----|---2----2-----|
A|--3----3-------|-3----3-------|
E|---------------|--------------|
   breath out...
e|----------------------3--|
B|------3----3---3--------3|
G|-------0----0---0--------|  
D|----2----2----2-----2----|    
A|---0----0----0-----0-----|
E|-------------------------|

Chorus: (plucked)
               G
Let me know if I'm doing this right
               D
Let me know if my grip's too tight
               C
Let me know if I can stay all of my life
               G
Let me know if dreams can come true 
               D
Let me know if this one's yours too
        C
Cause I see it ohh..

      Am    D         Em
And I feel it right here
      Am    D         Dsus   D
And I feel you right here

Verse 2
The vacuous night steps a side to........
e|----------------------------------------------|
B|----------------------------------------------|
G|-------------------------5-xxx5/77-5----------|
D|-------------------------5-xxx5/77-5----------|  (2x)
A|-------------------------3-xxx3/55-3----------|
E|----------------------------------------------|
then...
e|---------------3-------------|
B|-------3---------3-----------|
G|---------0-------------------|
D|-----2------2----------------| (2x)   
A|---3------3------------------|
E|-----------------------------|

The moon on its back and the seemingly veiled room's lit by the..
e|-----------------------------------------------|
B|-----------------------------------------------|
G|---------------------------4-xxx4/66-4---------|
D|---------------------------4-xxx4/66-4---------| (4x) 
A|---------------------------2-xxx2/44-2---------|
E|-----------------------------------------------|
[ Tab from: http://www.guitartabs.cc/tabs/s/sponge_cola/gemini_tab_ver_3.html ]
Same star....
e|---------------------------------|
B|---------------------------------|
G|-------6-6666--8-8888--9—9999-11-|
D|-------6-6666--8-8888--9—9999-11-|  
A|-------4-4444--6-6666--7—7777-9--|
E|---------------------------------|

Chorus: 

               G
Let me know if I'm doing this right
               Dsus
Let me know if my grip's too tight
               C9
Let me know if I can stay all of my life
               G
Let me know if dreams can come true 
               Dsus
Let me know if this one's yours too
        C9
Cause I see it ohh..

And I feel it
e|-------------------------------------------------|
B|-------------------------------------------------|
G|-----3-xxx3--5-xxx5--7-xxx7--9-xxx9-11--xxx11----|
D|-----3-xxx3--5-xxx5--7-xxx7--9-xxx9-11--xxx11----|
A|-----1-xxx1--3-xxx3--5-xxx5--7-xxx7--9--xxx9-----|
E|-------------------------------------------------|

Continuation...
---------------------------------|
---------------------------------|
--12-xxx12--11-xxx11--9----------|
--12-xxx12--11-xxx11--9----------|
--10-xxx10---9-xxx9---7----------|
---------------------------------|
and I feel you...                         right here....
e|------------------------------------------------------------|
B|------------------------------------------------------------|
G|-----3-xxx3--5-xxx5--7-xxx7--9-xxx9--12-121212121212121212--|
D|-----3-xxx3--5-xxx5--7-xxx7--9-xxx9--12-121212121212121212--| 
A|-----1-xxx1--3-xxx3--5-xxx5--7-xxx7--10-101010101010101010--|
E|------------------------------------------------------------|

Instrumental 

e|---------------------|------------------|
B|---3-------5-----(6x)|--3---3---3---3---|
G|---------------------|------------------|
D|---------------------|------------------|
A|---------------------|------------------|
E|---------------------|------------------|


e|----3---5---2---3--2--0--3--5--3---|
B|--3--------------------------------|
G|-----------------------------------|
D|-----------------------------------|
A|-----------------------------------|
E|-----------------------------------|

e|-3-2-3-0--3--5--2---3-2-3-0-3/5----|
B|-----------------------------------|
G|-----------------------------------|
D|-----------------------------------|
A|-----------------------------------|
E|-----------------------------------|

e|-3-2-3-0-3/5-3-2-3--3/5-5/7-7/8--7-2-3-5-5-3--5|
B|-----------------------------------------------|
G|-----------------------------------------------|
D|-----------------------------------------------|
A|-----------------------------------------------|
E|-----------------------------------------------|

e|---5-3-2-3--3-2-3-0-3—/5-/7-/8-/10--8-7-5-3--|
B|---------------------------------------------|
G|---------------------------------------------|
D|---------------------------------------------|
A|---------------------------------------------|
E|---------------------------------------------|

 
e|5-3-2-3--5-3-2-3-/5-/7--5-3-2-3--5-3-2-3--5-3-2-3--/5--2--3|
B|-----------------------------------------------------------|
G|-----------------------------------------------------------|
D|-----------------------------------------------------------|
A|-----------------------------------------------------------|
E|-----------------------------------------------------------|


thank u sa comments! xenxa na la na q tym para baguhin to', nagaaral
pa kc aq mggitara eh. begginer p lng po q! xenxa na sa mistakes!
Comments