Sponge Cola - Gemini Chords & Tabs

 

Gemini Chords & Tabs

Sponge Cola Chords & Tabs

Version: 2 Type: Tab 0 ratings
1 star 2 stars 3 stars 4 stars 5 stars
comments

Gemini Tab

   
GEMINI  by Sponge Cola

Tuning:standard

Elow!! 1st tab koh 2 kya pasensya n kung hndi perfect!!!hehehe

Intro: C9 (plucked)

e|---------------------3------------------------------------------------|
B|----------3------------3----------------------------------------------|
G|------------0---------------------------------------------------------|
D|-------2--------2-----------------------------------------------------|
A|-----3--------3-------------------------------------------------------|
E|----------------------------------------------------------------------|

Verse 1:

e|---------------------3------------------------------------------------|
B|----------3------------3----------------------------------------------|
G|------------0---------------------------------------------------------|
D|-------2--------2-----------------------------------------------------|
A|-----3--------3-------------------------------------------------------|
E|----------------------------------------------------------------------|

paulit ulit lng to pkinggan nyo n lng ung song

Pagdating sa "breath out..."
[ Tab from: http://www.guitartabs.cc/tabs/s/sponge_cola/gemini_tab_ver_2.html ]
e|----------------------------------------------------------------------|
B|----------3-----------------------------------------------------------|
G|------------0---------------------------------------------------------|  (4x)
D|-------2--------------------------------------------------------------|
A|-----0----------------------------------------------------------------|
E|----------------------------------------------------------------------|

Come a little closer
Flicker in flight
We'll have about an inch space
But I'm here
I can
Breathe in
What you
Breath out...

Chorus:
G
Let me know if I'm doing this right
D
Let me know if my grip's too tight
C
Let me know if I can stay all of my life
G
Let me know if dreams can come true
D
Let me know if this one's yours too
C
Cause I see it ohh..

       Am   D          C9
And I feel it right here
       Am   D          Dsus - D
And I feel you right here

Verse 2: (di ko po alam chords d2 eh...)

The vacuous night
Steps aside to give meaning to gemini's dreaming...
The moon on its back
And the seemingly veiled
room's lit by the same star....

Sori kung di pa po kumpleto di po kc ako magaling mgtab eh at ska 1st tab ko p lng to...
Pkituloy n lng po mga mggling mg tab jan!!!!! baguhin nyo kung gusto nyo wala ako pakialam!!heheh
\m/
Comments