Sponge Cola - Dragonfly Chords & Tabs

 

Dragonfly Chords & Tabs

Sponge Cola Chords & Tabs

Version: 3 Type: Tab 0 ratings
1 star 2 stars 3 stars 4 stars 5 stars
comments

Dragonfly Tab

   
Song: Dragonfly
Artist: Sponge Cola
Album: Palabas
Transcribed By: Kenneth M. Lalo
Date: January 26, 2005 (5:18 p.m.)
E-mail Add: knth@yahoo.com


I am proud to dedicate this song/tab to Charie...
for being my very best friend
to Morlach, "Shayla", for your love
to Miniwormee, "daworm", for your non-stop sense of humor
to Goy, Mhel, Kevin, Jr, Elmo, for your inquisitiveness
to all  C.Ss.R. Seminarians... eto na ung TAB!!!
to Meloy, "the kumba man", for your contagious smile
to George, Japuk, Rj, and Drew, salamat (kay Jologs dn!)!!!
to Kuya Dennis Despues and Kuya Alex...
and to all Shanians...lalo na sa mga ka-batch ko! ('03)
(saka dun sa technician na gumawa ng computer naming para matapos ko na 'to! Manong,
Teyngk Yu! MmmmwuuaaahHhH!)


Intro: (just listen to the song for perfect timing)

Guitar 1 (lead w/ bass)
E-------------14---------------------------------------------I
B----------12----11h12-11------------------------------------I
G(9s11)-11---------------13-------------------11-9-8-9-8----I
D----------------------------13-8h9-11-9-8-8s9---------------I
A------------------------------------------------------------I
E------------------------------------------------------------I

Guitar 2 (bass)
G-----------------------------------I
D-----------------------------------I
A--2-2-2----------------------------I
E--------4-4-4-0-0-0-2-2-2--------I

Guitar 1
E--------------14-------------------------------------------I
B-----------12---1211h1211h12h11----------------------------I
G-(9s11)-11-----------------------13-11-13-------------------I
D------------------------------------------13----------------I
A------------------------------------------------------------I
E------------------------------------------------------------I

E------------------------------------------------------------I
B------------------------------------------------------------I
G--------------------9-9s11-9-8h9-8--------------------------I
D8h9-9s11-9-8-8h9-8----------------9s11---------------------I
A------------------------------------------------------------I
E------------------------------------------------------------I




Chords: (rythm)
  E      F#     B    G#/B   
e-----------------------------------I
B-----------------------------------I
G---------------4-------------------I
D-4------4------4------4------6-----I
A-2------4------2------2--or--6-----I
E0------2-------------4------4-----I

I (bass)

B           		   G#/B
Maybe I'm a little addicted
		                    E
Maybe I just can't get out of this
				  F#
Maybe it is just too soon to say
I've seen you blow right past my window
You flew away and I was left inside
Without a clue
[ Tab from: http://www.guitartabs.cc/tabs/s/sponge_cola/dragonfly_tab_ver_3.html ]
Chorus:
E               F#                 B   G#/B     E 
 But/well if you think that I am too stoned to write
(F#)        E     F#
Don't think twice
B (hold)
Free your mind
G#
Don't let me down
E                              F#
We'll find a way to make it go away
B 
Free your mind
G#
Don't let me down
E                              F#
We'll find a way to make it go away 
E (hold)                       F# (hold)
We'll find a way to make it go away 
I'll make it go away

Adlib:

E--------------14-18h19-18-16----------------------------------I
B-----------12----------------16-------------------------------I
G(9s11)-11----------------------15h16-16s18-16-15-15h16-15(v)-I
D--------------------------------------------------------------I
A--------------------------------------------------------------I
E--------------------------------------------------------------I

E------------------------------------------------------------I
B------------------------------------------------------------I
G-----------16----------18-----------------------------------I
D13h14-14----14s16-16-------16s9(v)-------------------------I
A------------------------------------------------------------I
E------------------------------------------------------------I

II

B                             G#/B or G# 
I went ahead without direction
G#/B or G#                     E
A form of semi-self-mutilation
E                       F# 
Dragonfly collides with truth

Why can't you see me like see you
Can't you feel me like I feel you
Can't you be with me tonight

(Repeat Chorus)

I'll make it go away... 

E-----------11-12--14--12-11--------------------------------I
B--------12------------------14-12--------------------------I
G-(9s11)---------------------------11-----------------------I
D-----------------------------------------------------------I
A-----------------------------------------------------------I
E-----------------------------------------------------------I

(medyo may sabit 'tong part na 'to!)
E-----------------------------------------------------------I
B-----------------------------------------------------------I
G-------------8h9--11--------9s8----------------------------I
D8h9-9-9h11----------8s9-11--------------------------------I
A-----------------------------------------------------------I
E-----------------------------------------------------------I

E-----------------------------------------------------------I
B-----------------------------------------------------------I
G----------------------------------------------------------I
D-6-8-9-9s11-11-9-8-6-------------------------------------I
A-----------------------------------------------------------I
E-----------------------------------------------------------I

E-----------------------------------------------------------I
B-----------------------------------------------------------I
G----------------------------------------------------------I
D-222222222222---444444444444------------------------------I
A--222222222222---444444444444------------------------------I
E--000000000000---222222222222------------------------------I

I'll make it go away (my dragonfly)
(hanggang sa matapos!)

(Repeat Chorus 2fret higher)

Chords: (rythm)
  F#     G#     C#   Bb/C#  
e-----------------------------------I
B-----------------------------------I
G---------------6-------------------I
D-4------6------6------6------8-----I
A-4------6------4------4--or--8-----I
E2------4-------------6------6-----I

If you want the tab of the other songs of Sponge Cola, add nyo muna ko sa Friendster!!!
I'm still working for the other tracks of their album...
Comments