Sponge Cola - Dragonfly Chords & Tabs

 

Dragonfly Chords & Tabs

Sponge Cola Chords & Tabs

Version: 2 Type: Bass Tab

Dragonfly Bass Tab

   
Song: Dragonfly
Artist: Sponge Cola
Album: Palabas
Tabbed by: Jerzon Martin
E-mail me @: icefr9@yahoo.com
============================================================================
This is the Base of the song Dragonfly tama yung tablature ng Ultimate-guitar...
kaya andito na ang bass tab niya...Tama to'

Note:Pareparehas lang ang bass ng Verses,Refrain,at Chorus kaya sundan niyo lan
ito madali lang...
============================================================================

Para sa tamang timing,pakinggan niyo na lang yung song para ma get's niyo...
============================================================================

Intro: (Kasabay niya yung lead)
      C      Am            F          G
G|-------------------------------------------------------|
D|-------------------------------------------------------|
A|--3-0h3-3-3-----------------------------5--------------| (2x)
E|-----------5-0h5-5-5-----1-0h1-1-0h1/3-3-3h5-3---------|


Verses:
     C         Am          F          G
G|----------------------------------------------------|
D|----------------------------------------------------|
A|--3-0h3-3-3-----------------------------------------| 
E|-----------5-0h5-5-5-----1-0h1-1-0h1/3-0h3-3--------|

Refrains:
[ Tab from: http://www.guitartabs.cc/tabs/s/sponge_cola/dragonfly_btab_ver_2.html ]
And if you think that i am too stoned to write...
     F           G             C/Bm       Am        F     G
G|----------------------------------------------------------------|
D|----------------------------------------------------------------|
A|----------------------------3-3-2-2-----------------------------|
E|-11111111------33333333----------------5-0h5-5---1-0h1-1-0h1/3--|


Chorus:
Free your mind don't let me down....We'll find a way...
     C        Am           F          G
G|-------------------------------------------------------|
D|-------------------------------------------------------|
A|--333333333----------------------------------5---------|  
E|-----------5555555555----1111111111--0h1/3-3----3h5-3--|


Adlib:

     C      Am            F          G
G|-------------------------------------------------------|
D|-------------------------------------------------------|
A|--3-0h3-3-3-----------------------------5--------------| 
E|-----------5-0h5-5-5-----1-0h1-1-0h1/3-3-3h5-3---------|

Pagkatapos ng lead: 1 step higher na:

Chorus:

Free your mind...

G|-------------------------------------------------------------------|
D|-------------------------------------------------------------------|
A|---5555555----------------------------7----------------------------|
E|------------7777777---33333333/2/3/5-5--5h7-5----------------------|