Sponge Cola - Cigarette Chords & Tabs

 

Cigarette Chords & Tabs

Sponge Cola Chords & Tabs

Version: 1 Type: Tab 0 ratings
1 star 2 stars 3 stars 4 stars 5 stars
comments

Cigarette Tab

   
Title: Cigarette
Artist: Sponge Cola
Tabbed by: Jeff Lualhati
[ Tab from: http://www.guitartabs.cc/tabs/s/sponge_cola/cigarette_tab.html ]
Intro
E|-<12>---------|------------------------------------|
B|-<12>---------|------------------------------------|
G|-<12>---------|------------------------------------| 
D|-<12>---------|---5---5-4---------9-9s10-9-7s5-5---|
A|-<12>---------|-3---5-----5--5s7-------------------|
E|-<12>--12-12\-|------------------------------------|

Verse
E|------------------------------------|
B|------------------------------------|
G|------------------------------------| 
D|---5---5-4---------9-9s10-9-7s5-5---|
A|-3---5-----5--5s7-------------------|
E|------------------------------------|

Chorus
G Bm C Cm
Comments