Sponge Cola - 22 Chords & Tabs

 

22 Chords & Tabs

Sponge Cola Chords & Tabs

Version: 4 Type: Tab 0 ratings
1 star 2 stars 3 stars 4 stars 5 stars
comments

22 Tab

   
Sponge Cola - Palabas - 22

tabbed by: jay c.

capo: 1st fret

cooties

intro

e---------5-----------7---------3---------3-----------5-----------7---------3-|
b-----------------------------------------------------------------------------|
g-----4-----4-----5-----5---2-----2---2-----2-----4-----4-----5-----5---2-----|
d---5---5-----5/7---7-----3---3-----3---3-----3/5---5-----5/7---7-----3---3---|
a-----------------------------------------------------------------------------|
e-----------------------------------------------------------------------------|

             G5         A5        F5  <----|strum
e------------------------------------------|
b------------------------------------------|
g------------------------------------------|
d---3-3333/5-5----------7---------3--------|
a---3-3333/5-5----------7---------3--------|
e---1-0101/3-3----------5---------1--------|


verse

	G-Am-F-  4x (power chords na lang)

refrain
[ Tab from: http://www.guitartabs.cc/tabs/s/sponge_cola/22_tab_ver_4.html ]
            G5    F5G5    F5G5  A5 A#5 C5  G5
e------------------------------------------------|
b------------------------------------------------|
g------------------------------------------------|
d---3-3333--5-----3-5-----3-5---7--8---10--10----|
a---3-3333--5-----3-5-----3-5---7--8---10--8-----|
e---1-0101--3-----1-3-----1-3---5--6---8---------|


chorus

	G-Am-F-  4x (power chords na lang)


repeat verse ,refrain and chorus


bridge

	Em-F-G-  (power chords na lang)
	Em-F-G- (higher octave yung G) at power chords na lng din
	Em-F-G-

solo

                                    while guitar 1:E5     F5         G5  A5   F5
e---15---13-12-13-12-10------------------------------------------------------------|
b-----------------------13-12-10h12-------10h12-10--------10---------10--12---8----|
g-----------------------------------10h12----------12-----------12---9---11---7----|
d------------------------------------------------------12----12--------------------|
a----------------------------------------------------------------------------------|
e----------------------------------------------------------------------------------|


repeat refrain

repeat chorus 2x

last


e-------------|
b-------------|
g-------------|  5x ata, basta pakinggan nyo n lng kanta, then G5-A5-F5.
d---3-33333---|
a---3-33333---|
e---1-01010---|


-end of song-

.i.am.the.unforgiven.
Comments