Sponge Cola - 22 Chords & Tabs

 

22 Chords & Tabs

Sponge Cola Chords & Tabs

Version: 3 Type: Tab 0 ratings
1 star 2 stars 3 stars 4 stars 5 stars
comments

22 Tab

   
Artist: Sponge Cola
Title: 22
Tuning: Drop D

tab by: Christian "tiano" Magsombol
e-mail:(dishwalla84@yahoo.com)


Intro:
e|---------6-------------8---------4----------4--|
B|-----------------------------------------------|
G|-----5-------------6---------3----------3------|(2x)
D|---6---6-----6-6\8---8-----4---4------4---4----|
A|-----------------------------------------------|
D|-----------------------------------------------|

[ Tab from: http://www.guitartabs.cc/tabs/s/sponge_cola/22_tab_ver_3.html ]
               G#       A#(strum)   F#(strum)(2x)
e|----------------------------------------------------|
B|----------------------------------------------------|
G|----------------------------------------------------|
D|---4-3/4-44/6--66-----8-------------4---------------|
A|---4-3/4-44/6--66-----8-------------4---------------|
D|---4-3/4-44/6--66-----8-------------4---------------|

(then G#,A#,F#,F#)

thanks............helow sa lahat ng ECE sa Batangas State University...
Comments