Sponge - Plowed Chords & Tabs

 

Plowed Chords & Tabs

Sponge Chords & Tabs

Version: 1 Type: Tab 0 ratings
1 star 2 stars 3 stars 4 stars 5 stars
comments

Plowed Tab

   
#----------------------------------PLEASE NOTE---------------------------------#
#This file is the author's own work and represents their interpretation of the #
#song. You may only use this file for private study, scholarship, or research. #
#------------------------------------------------------------------------------##
Date: Fri, 2 Jun 1995 00:10:06 -0400

From: OllieOne@aol.com
Group: Sponge
Song: Plowed

this song is for Skate16 (i think that is him), he requested this song
so i sat down and put it here for him.  

!!!!!!print it out on NOTEPAD in windows or else it will look funny!!!!!!
                  -------------------
transcribed by   | Michael R. Oliver |
                  -------------------
tuned down 1/2 step (you don't have to if you don't want to, it will
sound fine either way) here is the song

notations
---------
s=slide
h=hammer on note
v=vibrato
b=bend
p=pull of note

guitar parts
------------
intro:
------

E |---------------------------------------------------------------|
B |---------------------------------------------------------------|
G |--7s9-9-9-9s7-7-7-7s9-9-9-9s7-7-7-7s9-9-9-9s11-11-11-11s12-12--|
D |---------------------------------------------------------------|
A |---------------------------------------------------------------|
E |---------------------------------------------------------------|

E |--------------|
B |--------------|
G |12-12s11s9s4--| repeat as many times as needed
D |--------------| 
A |--------------|
E |--------------|

then the other guitar comes in and plays
E |-------------------------|
B |--17---17--17---17---17--| go crazy with this
G |--16---16--16---16---16--|
D |-------------------------|
A |-------------------------|
E |-------------------------|


chords used in song:
********************
the chords are right but i don't know the names of some of them

E |--0--| D/? |--0--| A |--0--| C? |--3--| G |--3--| D |--2--| C |--0--|
  |--0--|     |--3--|   |--2--|    |--0--|   |--3--|   |--3--|   |--1--|
  |--1--|     |--2--|   |--2--|    |--0--|   |--0--|   |--2--|   |--0--|
  |--2--|     |--0--|   |--2--|    |--2--|   |--0--|   |--0--|   |--2--|
  |--2--|     |--0--|   |--0--|    |--3--|   |--2--|   |--0--|   |--3--|
  |--0--|     |--2--|   |--0--|    |--0--|   |--3--|   |--0--|   |--0--|
[ Tab from: http://www.guitartabs.cc/tabs/s/sponge/plowed_tab.html ]
verse:
------
the verse's chord progression goes like this E--D/?--A--D/?--C?--G
that is played during this part "will i wake up? some dream....."

during the second verse, the other guitar does a little interlude over
it, he used this scale, it is in this scale play it however you want
E |------------------------------------------12--(14)--15--|
B |-------------------------------12--(13)-15--------------|
G |------------------------12--14--------------------------|
D |----------------12--14----------------------------------|
A |---------12--14-----------------------------------------|
E |--12--15------------------------------------------------|
the notes are in no particlar order
the notes in parenthis () are optional, play them if you want

chorus:
-------
the chorus's chord progression goes like this (it is a long one)
D--C--D--C--D--C--C?-E--C?--E--C?--E--C?--G--C?

over the begining couple of chord of the chorus the other guitar plays this
E |-----------------------------------------|
B |----8-7----8-7----8-7----8-5--| or something like that....
G |--7------7------5--------5------| play however many times
D |-----------------------------------------| or whenever needed
A |-----------------------------------------|
E |-----------------------------------------|

*****************
after the first verse and chorus the begining part is played again
a couple of times and then he plays

E |---------------------------------------------------------------------|
B |---------------------------------------------------------------------|
G |--11s12 12-12-12s11-11-11-11s12-12-12-12s11-11-11-11s12-12-12-12s14--|    
D |---------------------------------------------------------------------|
A |---------------------------------------------------------------------|
E |---------------------------------------------------------------------|

E |-------------------------|
B |--------------------16v--| play as many times as needed
G |--14-14-14s16-16-16------|
D |-------------------------|
A |-------------------------|
E |-------------------------|

any correction, additions, subtractions, suggestions, thank-you notes, 
etc.,etc.,etc., or request, just e-mail me (OllieOne@aol.com)

remember to print out on NOTEPAD in windows or else it will come out
all funky and you won't be able to read it!

quote of the week:
"My mom wanted to name me Jesus, but the name was already TAKEN!"
                  quote taken from the mouth of James VanOrden
Comments