Sponge - Molly Chords & Tabs

 

Molly Chords & Tabs

Sponge Chords & Tabs

Version: 2 Type: Tab 0 ratings
1 star 2 stars 3 stars 4 stars 5 stars
comments

Molly Tab

   
#----------------------------------PLEASE NOTE---------------------------------#
#This file is the author's own work and represents their interpretation of the #
#song. You may only use this file for private study, scholarship, or research. #
#------------------------------------------------------------------------------##
From: Mascis2@aol.com
Date: Wed, 14 Jun 1995 00:52:18 -0400

From: OllieOne@aol.com
Group: Sponge
Song: Molly
                -------------------
transcribed by | Michael R. Oliver |
                -------------------

remember to dowload it and print it out on NOTEPAD in windows

this is one of the most requested songs that i've had.  Since so many
of you wanted it, here it is Molly of the Sponge album.  I hope you all
appreciate it even thought the tab isn't that good.

tune down you guitar 1/2 step down

guitar:
-------
the basic verse riff is:

D |--3--|    |--5--| B |-----| G |--3--|    |-----|
  |--2--|    |--5--|   |--4--|   |--3--|    |-----|
  |--3--| or |--7--|   |--4--|   |--0--| or |--4--|
  |--0--|    |--7--|   |--2--|   |--0--|    |--5--|
  |--0--|    |--5--|   |-----|   |--2--|    |--5--|
  |--0--|    |-----|   |-----|   |--3--|    |--3--|

play whatever D or G is good for you (i prefer the open chords)

the verse goes D-B-G
(the bass just plays the same thing, it plays the root note of each chord)

rythm part A:
-------------
and sometimes another guitar plays this little riff:

E |-------------5-------------------------------|
B |--------5-----------5--------------7------7--|
G |-----------7------7-----------7---------7----|
D |-----7----------7----------7----7----7-------|
A |--5---------------------5--------------------|
E |---------------------------------------------|
[ Tab from: http://www.guitartabs.cc/tabs/s/sponge/molly_tab_ver_2.html ]
chours:
-------
the chorus i just couldn't here too clear, so i'm 79% sure that it is wrong,
but i could be right who knows?

chords
G |-----| A |-----| C |------|
  |-----|   |-----|   |------|
  |-----|   |-----|   |------|
  |--5--|   |--7--|   |--10--|
  |--5--|   |--7--|   |--10--|
  |--3--|   |--5--|   |--8---|
the chorus chord progression is G-A-C, work with it, it isn't easy to hear
the guitar, but i'm sure you all could manage

after the chorus comes this part:
---------------------------------

E |--2--2--2--2--2--0--0--0--0--0--0--3--3--3--3--3--3--2--2--2--2--2--|
B |--3--3--3--3--3--3--3--3--3--3--3--3--3--3--3--3--3--3--3--3--3--3--|
G |--2--2--2--2--2--2--2--2--2--2--2--2--2--2--2--2--2--2--2--2--2--2--|
D |--0--0--0--0--0--0--0--0--0--0--0--0--0--0--0--0--0--0--0--0--0--0--|
A |--------------------------------------------------------------------|
E |--------------------------------------------------------------------|
play that twice

part A: starts at about 2.12 and at about 2.23
-------
for this part the bass is playing the regular D-B-G progression, but instead
of going back to the, he keeps playing the G while the guitar does this

E |-----------5-----------------7--------------------10---------|
B |-------5----------5------7---------7--------10-----------10--|
G |---------7------7----------9-----9-------------12------12----|
D |-----7--------7--------9-------9---------12----------12------|
A |--5------------------7----------------10---------------------|
E |-------------------------------------------------------------|


that should be it, any corrections, additions, suggestions, comments,
questions, thank you's, or anything else just e-mail me (OllieOne@aol.com)

if you need the lyrics, just e-mail me
this tab could be hard to follow, if you have any questions, just e-mail me

have fun with it
Comments