Spoken - Runaway Chords & Tabs

 

Runaway Chords & Tabs

Spoken Chords & Tabs

Version: 1 Type: Tab 0 ratings
1 star 2 stars 3 stars 4 stars 5 stars
comments

Runaway Tab

Author/Artist: Spoken
Title: Runaway
Album: What Remains...
Transcribed by: Luke Starr
Email: exitupwards@hotmail.com


drop “d” tuning

Into/Verse/Chorus
e ----------------------------------------------- 
b -----------------------------------------------
g -----------------------------------------------
d -----------------------------------------------
a -----------------------------3-3-3-3-3-3-3----
d ---2-2-----2-2-----2-2------------------------


“There comes a time...”
e ----------------------------------------------- 
b -----------------------------------------------
g -----------------------------------------------
d ----7-7----7----7-7-7-----7-7-----------------
a ----7-7----7----7-7-7-----7-7-----------------
d ----7-7----7----7-7-7-----7-7-----------------

[ Tab from: http://www.guitartabs.cc/tabs/s/spoken/runaway_tab.html ]
“You are the light...”
e ----------------------------------------------- 
b -----------------------------------------------
g -----------------------------------------------
d ----2---3/5---6--3-----------------------------
a ----2---3/5---6--3-----------------------------
d ----2---3/5---6--3-----------------------------


“Why do we...”
e ----------------------------------------------- 
b -----------------------------------------------
g -----------------------------------------------
d -----2-2--------------------------------------
a -----2-2--------------------------------------
d -----2-2--------------------------------------




I think that’s about it....It’s my first tab so don’t be
too critical, but feel free to correct me where needed.
And more people should post Spoken tabs. There aren’t any
on this site! :)
Comments