Spoken - Falling Further Chords & Tabs

 

Falling Further Chords & Tabs

Spoken Chords & Tabs

Version: 1 Type: Tab

Falling Further Tab

  Hey this is an awesome song. I didnt see any tabs online for this song, so i had my 
teacher tab it. But I got to meet the band at a concert and they showed me how to play it. 
questions or comments e mail me at mopar2511@yahoo.com
                            Enjoy


     Intro (Phase effect) There are two guitars but i went with thelead
       ---------------------------------------------------|
       ---------------------------------------------------|
       ---------------------------------------------------| Repeat 8x
       ---------------------------------------------------|
       -----9-9-9-9-10------------------------------------|
       -----7-7-7-7-7-------------------------------------|
[ Tab from: http://www.guitartabs.cc/tabs/s/spoken/falling_further_tab.html ]
     This is still the intro but thisis with distortion
       ---------------------------------------------------|
       --------------------------222222-------------------|
       --------------------------222222-------------------|Repeat 2x
       ---4444-5--4444-5--4444-5-222222-------------------|
       ---2222-5--2222-5--2222-5--------------------------|
       --------3-------3-------3--------------------------|


     Chorus
       --------------2-2-2-2-2----------------------------|
       --------------3-3-3-3-3----------------------------|
       --------------2-2-2-2-2----------------------------|Repeat 4x
       --4-444-5-555--------------------------------------|
       --2-222-5-555--------------------------------------|
       --------3-333--------------------------------------|

         Thats how Aaron the guitar player from spoken showed me how to play it, so im 
its right.