Spn-x - Anti Nazi Lied Chords & Tabs

 

Anti Nazi Lied Chords & Tabs

Spn-x Chords & Tabs

Version: 1 Type: Tab 0 ratings
1 star 2 stars 3 stars 4 stars 5 stars
comments

Anti Nazi Lied Tab

   
Titel: Anti Nazi Lied
Interpret: SPN-X (www.spn-x.de)
Album: Nachrichten aus Arschland



Anmerkung:
   D:		  B:	         F:	      C:	     E:
|-----|        |-----|        |-----|      |-----|        |-----|        
|-----|        |-----|        |-----|      |-----|        |-----|        
|--5--|        |--3--|        |-----|      |--5--|        |--2--|        
|--5--|        |--3--|        |--3--|      |--3--|        |--2--|        
|--3--|        |--1--|        |--3--|      |--3--|        |--0--|        
|-----|        |-----|        |--1--|      |-----|        |-----|        

Das sind die ersten Tabs die ich gemacht habe! GANZ ALLEINE *gg*.
das haut alles so hin, zumindest bei mir! Also viel Spaß!

This are my first Tabs, which i did ALLONE. It is all right there.
Much fun by playing this!

Intro:

  D-----------------B------------F------------C-----------

e|--------0-1---0--|-1----3---1-|-1---1-1-3-1|-1-0--0-0--|
H|--3-3-----------3|------------|------------|-----------|
G|-----------------|------------|------------|-----------|
D|-----------------|------------|------------|-----------|
A|-----------------|------------|------------|-----------|
E|-----------------|------------|------------|-----------|

  D-----------------B----------F--------------C--------------

e|-3-1-0---3-1-0---|-6---8-6--|-5--6-8-6-5-6-|-3-3--5-6-5-3-|
H|-------3-------3-|----------|--------------|--------------|
G|-----------------|----------|--------------|--------------|
D|-----------------|----------|--------------|--------------|
A|-----------------|----------|--------------|--------------|
E|-----------------|----------|--------------|--------------|


D---B---E/F(gedämpft)---C

D                            B                            F
Du bist der Abschaum und das Letzte, du bist primitiv und blöd,
                          C                         D
geistig nicht ganz da und stolz auf deine Nationalität.
                       B                            F
Du verhältst dich sehr human, zündest fremde Häuser an,
                            C                        D
leistest deinen Beitrag zur Kultur in deinem schönen Land.
                             B                              F
Ein hohler Kopf ziert deinen Hals, ein mieser Blick in dein Gesicht.
                          C                           D     D(gedämpft)
Wirst verfolgt von Rassenwahn und dafür hass ich dich!


F                        C                           D
Du bist dumm und arm und krank, darum hebst du deine Hand,
                          B                            F
wanderst selbstlos in den Krieg, darum sing ich dieses Lied.
                      C                                D
Dieses Lied von einer Welt, die nicht nur dir auch mir mißfällt.
                      B                              D
Dieses Lied von einem Krieg der sinnlos seine Bahnen zieht. 


Solo:

  D------------------B---------F--------------C--------------
[ Tab from: http://www.guitartabs.cc/tabs/s/spn_x/anti_nazi_lied_tab.html ]
e|--3-1-0---3-1-0---|-6--8-6--|-5--6-8-6-5-6-|-3-3--5-6-5-3-|
H|--------3-------3-|---------|--------------|--------------|
G|------------------|---------|--------------|--------------|
D|------------------|---------|--------------|--------------|
A|------------------|---------|--------------|--------------|
E|------------------|---------|--------------|--------------|


D---B---E/F(gedämpft)---C

D                               B                              F
Im Gleichschritt Marsch ist die Devise, braune Hemden, Springerstiefel,
                          C                       D
du hörst deinem Arschloch zu das genauso ist wie du.
                               B                                      F
Wer anders fühlt und denkt ist schlecht, doch wer gibt dir gleich das Recht,
                   C                               D
andres Leben zu zerstörn, weil sie nicht hierher gehörn.
                             B                               F
Kein Funke Menschlichkeit in dir, du bist deutsch, wir gratulieren,
                          C                                 D      D(gedämpft)
schmierst Parolen an die Wände, doch mit dir ist`s bald zu Ende. 


F                        C                           D
Du bist dumm und arm und krank, darum hebst du deine Hand,
                          B                             F
wanderst selbstlos in den Krieg, darum sing ich dieses Lied.
                      C                                 D
Dieses Lied von einer Welt, die nicht nur dir auch mir mißfällt.
                       B                              D
Dieses Lied von einem Krieg der sinnlos seine Bahnen zieht. 


Solo:

  D-----------------B------------F------------C------------

e|--------0-1---0--|-1----3---1-|-1---1-1-3-1|-1-0--0-0-0-|
H|--3-3-----------3|------------|------------|------------|
G|-----------------|------------|------------|------------|
D|-----------------|------------|------------|------------|
A|-----------------|------------|------------|------------|
E|-----------------|------------|------------|------------|

  D-------------B-------F------------C------------D------D(gedämpft)

e|0-5--6-8--6-5|-1-----|------------|------------|------|
H|-------------|-------|------------|------------|------|
G|-------------|-------|---0-2--0---|0-0-2-3-2-0-|3^----|
D|-------------|-------|-3--------3-|------------|------|
A|-------------|-------|------------|------------|------|
E|-------------|-------|------------|------------|------|


F                        C                           D
Du bist dumm und arm und krank, darum hebst du deine Hand,
                          B                             F
wanderst selbstlos in den Krieg, darum sing ich dieses Lied.
                      C                                 D
Dieses Lied von einer Welt, die nicht nur dir auch mir mißfällt.
                       B                              D
Dieses Lied von einem Krieg der sinnlos seine Bahnen zieht.

D---B---E/F(gedämpft)---C---D (e im 6. bund kurz spielen)
Comments