Splender - Yeah Whatever Chords & Tabs

 

Yeah Whatever Chords & Tabs

Splender Chords & Tabs

Version: 4 Type: Tab 0 ratings
1 star 2 stars 3 stars 4 stars 5 stars
comments

Yeah Whatever Tab

Author/Artist: Splender
Title: Yeah Whatever
Album: Halfway Down The Sky
Transcribed by: Jp7
Email: Jp7@Crosswinds.net

Verses are not 100% cuz I've just started tabbing it.
Prechorus and Chorus 100% correct.
The first guitar removes his capo and plays along with the chorus in a higher pitch.
If you listen closely to the Left channel you'll hear it. I'm not sure what he plays.

Verses
e -------------------------p----------------------------------------------------
B -----3-3-3-1---0--0--0--1-0--p---p--------------------------------------------
G -----0-0-0-0---0--0--0------2-0-2-0-------------------------------------------
D ---2-----------2--------------------------------------------------------------
A -3-------------2--------------------------------------------------------------
E ------------------------------------------------------------------------------
 Guitar 1 - Capo on 3rd Fret (Clean)   Repeat a few times then cue Guitar 2   

[ Tab from: http://www.guitartabs.cc/tabs/s/splender/yeah_whatever_tab_ver_4.html ]
Prechorus
e ------------------------------------------------------------------------------
B ------------------------------------------------------------------------------
G ------------------------------------------------------------------------------
D -8-8---7-7---8-8---7-7---5-5---7-7--------------------------------------------
A -8-8---7-7---8-8---7-7---5-5---7-7--------------------------------------------
E -6-6---4-4---6-6---4-4---3-3---4-4--------------------------------------------
 Guitar 2 - No Capo (Distortion)                                              


Chorus
e ------------------------------------------------------------------------------
B ------------------------------------------------------------------------------
G ------------------------------------------------------------------------------
D -8-8-8-8---10-10-10-10-10-10---5-5-5-5---3-3-3-3-3-3--------------------------
A -8-8-8-8---10-10-10-10-10-10---5-5-5-5---3-3-3-3-3-3--------------------------
E -6-6-6-6---8--8--8--8--8--8----3-3-3-3---1-1-1-1-1-1--------------------------
 Guitar 1 - Remove Capo. Play Distorted.                                      

e ------------------------------------------------------------------------------
B ------------------------------------------------------------------------------
G ------------------------------------------------------------------------------
D -8-8-8-8---10-10-10-10-10-10---5-5-5-5---3-3-3-3-3-3----10-10-10-10-10-10-13--
A -8-8-8-8---10-10-10-10-10-10---5-5-5-5---3-3-3-3-3-3----10-10-10-10-10-10-13--
E -6-6-6-6---8--8--8--8--8--8----3-3-3-3---1-1-1-1-1-1----8--8--8--8--8--8--11--
 Last Chorus a Little Different                                               

Guitar 2 During Chorus: Unknown. Plays something high pitch. 
Listen to it in the left speaker and tab it for me :o)




Comments