Splender - London Chords & Tabs

 

London Chords & Tabs

Splender Chords & Tabs

Version: 1 Type: Tab 0 ratings
1 star 2 stars 3 stars 4 stars 5 stars
comments

London Tab

London
Splender
Tuning - Standard - EADGBE 

Verse 1 
|-3-|------|--0--| 
|-3-|------|--3--| 
|-0-|------|--2--| 
|-0-|------|--0--| 
|-2-|----5-|-----| 
|-3-|-3h5--|-----| 

Pre-Chorus (And Though it's leading me on...) 
Guitar 1 
|-0-|-0-|-0-|-5-| 
|-0-|-0-|-6-|-5-|  Play each chord 16 times 
|-7-|-7-|-7-|-6-|  in 4/4 time. 
|-7-|-7-|-7-|-7-| 
|-5-|-X-|-X-|-7-| 
|---|-7-|-6-|-5-| 

Guitar 2  Play each 2 times                                                                                  Strum 
|--------0h2p0--|---------0h2p0---|-----1---1---|-0-| 
|-----3-------3-|-----3--------3--|------3---2--|-2-| 
|---2--2--------|---2---2---------|---2---2---3-|-2-| 
|-0-------------|-----------------|-------------|-2-| 
|---------------|-2---------------|-1-----------|-0-| 
|---------------|-----------------|-------------|-0-| 

Verse 2 

Listen to Track for placement of each part. 

Guitar 2 
                            Play twice                                                 2 times 
|---------|-------------------------|-------------| 
|---------|-------------------------|-------------| 
|-------7-|----------14------14--14-|-----7-7\9/7-| 
|-7--7-7--|-14--14-14---14-14--14---|-7-7---7\9/7-| 
|---------|-------------------------|-------------| 
|---------|-------------------------|-------------| 

|----------------------------------------| 
|-----------------------12b12b12b12r10-8-| b = bend 
|----------14------14--------------------| r = release 
|-14--14-14---14-14--14------------------| 
|----------------------------------------| 
|----------------------------------------| 

Verse 3 

Listen to Track for placement of each part. 
[ Tab from: http://www.guitartabs.cc/tabs/s/splender/london_tab.html ]
Guitar 2 
|-----------------|--------------------------------| 
|-----------------|--------------------------------| 
|-------7-------7-|----------14---------14--14--14-| 
|-7-7-7--7--7-7---|-14--14-14--14--14-14--14--14---| 
|-----------------|--------------------------------| 
|-----------------|--------------------------------| 

Ending 
Guitar 1 
|-0-|-0-| 
|-1-|-3-| 
|-0-|-0-|  Play each chord 
|-3-|-4-|  16 times 
|-3-|-5-| 
|-0-|-0-| 

Guitar 2 
|--------------------------------------| 
|--------------------------------------| 
|------14------------14----------------| 
|-14-15--15--15-14-15--15--15-15-15-15-| 
|--------------------------------------| 
|--------------------------------------| 

|------------------------------------------------| 
|------------------------------------------------| 
|------14-----------------------14---------------| 
|-14-16---16--16-16-16-16--14-16--16-16-16-16-16-| 
|------------------------------------------------| 
|------------------------------------------------| 

Second Ending 

This is played along with the other 2 parts above, 
only this sounds synth-like and hard to follow. 
This is the best I could for it.  Again listen to 
CD for timing.  Use Delay W/Tap Tempo and Chorus Pedal. 
Use a Ring Mod. if you have it and Wah or Auto-Wah. 

Guitar 3 
(I've been to London...) 
 Strum each 8 times   Pick scrap + Strum  Gradual release 
|-------------------|----17XXXX/XXXX5----|-12b-15 / 19--| 
|-------------------|----15XXXX/XXXX3----|--------------| 
|-------------------|--------------------|--------------| 
|--7-8-9-10-11--12--|--------------------|--------------| 
|-------------------|--------------------|--------------| 
|--5-6-7--8--9--10--|--------------------|--------------| 
 p.h                                  p.h = Pinch Harmonic 
|--------|-14h15-15-15-17--17-17-19-| 
|--------|--------------------------| 
|--------|--------------------------| 
|-13 / 0-|--------------------------| 
|--------|--------------------------| 
|--------|--------------------------| 

For the rest of it mess around with the whammy bar 
and try to keep in key. 
Thanks y'all
Myles
Comments