Spitalfield - Gold Dust Vs The State Of Illinois Chords & Tabs

 

Gold Dust Vs The State Of Illinois Chords & Tabs

Spitalfield Chords & Tabs

Version: 1 Type: Bass Tab 0 ratings
1 star 2 stars 3 stars 4 stars 5 stars
comments

Gold Dust Vs The State Of Illinois Bass Tab

   
Tabbed by: SaintJimmy105
E-mail: SaintJimmy10@yahoo.com

Tuning: Standard(E,A,D,G)

Intro(play at 0:14, drums also kick in)
G--------------------------------------------------------------|x1
D-444210-------------------------------------------------------|
A-------0------------------------------------------------------|
E--------20000000----------------------------------------------|

Intro pt. 2/Chorus
G--------------------------------------------------------------|x1
D------------------------------------------444210--------------|
A------------------------------------------------0-------------|
E--5-x-x-5--5555-3-x-x-3-3333-2-x-x-2-2222--------20000000-----|

Verse and Pre-Chorus
G--------------------------------------------------------------|x4
D------------34------53----23------32----12------21------------|
A--------------------------------------------------------------|
E-5555-555-55---3333---3-33---2222---2-22---1111---1-1111------|

Chorus
G--------------------------------------------------------------|x2
D------------------------------------------444210--------------|
A------------------------------------------------0-------------|
E--5-x-x-5--5555-3-x-x-3-3333-2-x-x-2-2222--------20000000-----|
[ Tab from: http://www.guitartabs.cc/tabs/s/spitalfield/gold_dust_vs_the_state_of_illinois_btab.html ]
Post-Chorus
G--------------------------------------------------------------|
D--------------------------------------------------------------|
A------2-------------------------------------------------------|
E-5-023--023-(go straight to verse again)----------------------|

Verse and Pre Chorus

Chorus

Interlude
G--------------------------------------------------------------|
D--------------------------------------------------------------|
A------2----2h3------2-----------------------------------------|
E-5-023--023----5-023--023-xx-xx-------------------------------|

G--------------------------------------------------------------|
D--------------------------------------------------------------|
A------2----2h3------2----5p3----------------------------------|
E-5-023--023----5-023--023-------------------------------------|

Bass only riff...
G--------------------------------------------------------------|
D--------------------------------------------------------------|
A------2----2h3------2-----------------------------------------|
E-5-023--023----5-023--023-xx-xx-------------------------------|

G--------------------------------------------------------------|
D--------------------------------------------------------------|
A------2----2h3------2-----5p3---------------------------------|
E-5-023--023----5-023--023-------------------------------------|

Chorus x1

End on
G-----|
D-----|
A-----|
E-5~--|


And that's it. Hope it was helpful. This is my first tab, so please rate it
and make comments. I don't think its perfect, but its very close. Thanks.
Comments