Spitalfield - Five Days And Counting Chords & Tabs

 

Five Days And Counting Chords & Tabs

Spitalfield Chords & Tabs

Version: 1 Type: Tab 0 ratings
1 star 2 stars 3 stars 4 stars 5 stars
comments

Five Days And Counting Tab

Artist: Spitalfield
Song: Five Days and Counting
Album: Remember Right Now
Tabbed by: David Kiss


Tuning: Standard (EADGBe)
.=PALM MUTE
x=MUTE STRING
/=SLIDE
*=HARMONIC


INTRO

Guitar 1 [DISTORTION]
e|--------------------------------------------------------------------|
b|--------------------------------------------------------------------|
g|--------------------------------------------------------------------|
d|--9--9--7--9-----7--9--7--9--11--12-----5--5--5-----5--5--5--7--9---| [x2]
a|--x--x--x--x-----x--x--x--x--x---x------x--x--x-----x--x--x--x--x---|
E|--7--7--5--7-----5--7--5--7--9---10-----3--3--3-----3--3--3--5--7---|
PM  .  .  .  .     .  .  .  .  .   .      .  .  .     .  .  .  .  .

Guitar 2 [REVERB]
e|-----------------10~--------------------5~----------3~--------------|
b|--------------------------------------------------------------------|
g|--------------------------------------------------------------------|
d|--------------------------------------------------------------------| [x2]
a|--------------------------------------------------------------------|
E|--------------------------------------------------------------------|

e|-------------------|
b|-------------------|
g|-------------------|
d|----9/-------------|  Guitar 2 End on Second Time
a|----9/-------------|
E|----7/-------------|

CHORUS

Guitar 1 + Guitar 2
e|--------------------------------------------------------------------|
b|--------------------------------------------------------------------|
g|--11--11--9--11----11--9--11---14---11--9--9------------------------|
d|--x---x---x--x-----x---x--x----x----x---x--x------------------------|
a|--9---9---7--9-----9---7--9----12---9---7--7------------------------|
E|--------------------------------------------------------------------|

e|--------------------------------------------------------------------|
b|--------------------------------------------------------------------|
g|--11--11--9--11----11--9--11--7-----9-------------------------------|
d|--x---x---x--x-----x---x--x---x--7--x-------------------------------| [x2] 
a|--9---9---7--9-----9---7--9---5--x--7-------------------------------|
E|---------------------------------5----------------------------------|

VERSE

Guitar 2 [Clean]
e|--0-0-----0--------|
b|------3-3---3------|
g|-------------------|
d|-------------------| [REPEAT 10x during verse]
a|-------------------|
E|-------------------|

BRIDGE #1

Guitar 2 [Clean]
e|--2---2---2---2---0---0---0---0------end-on-0~-4th-time-------------|
b|----3---3---3---3---3---3---3---3-----------------------------------|
g|--------------------------------------------------------------------|
d|--------------------------------------------------------------------| [x4] 
a|--------------------------------------------------------------------|
E|--------------------------------------------------------------------|

CHORUS 

Guitar 1 + Guitar 2
e|--------------------------------------------------------------------|
b|--------------------------------------------------------------------|
g|--11--11--9--11----11--9--11---14---11--9--9------------------------|
d|--x---x---x--x-----x---x--x----x----x---x--x------------------------|
a|--9---9---7--9-----9---7--9----12---9---7--7------------------------|
E|--------------------------------------------------------------------|

e|--------------------------------------------------------------------|
b|--------------------------------------------------------------------|
g|--11--11--9--11----11--9--11--7-----9-------------------------------|
d|--x---x---x--x-----x---x--x---x--7--x-------------------------------| [x1] 
a|--9---9---7--9-----9---7--9---5--x--7-------------------------------|
E|---------------------------------5----------------------------------|

VERSE

Guitar 2 [Clean w/ optional wah]
e|--0-0-----0--------|
b|------3-3---3------|
g|-------------------|
d|-------------------| [REPEAT 10x during verse]
a|-------------------|
E|-------------------|

BRIDGE #2
[ Tab from: http://www.guitartabs.cc/tabs/s/spitalfield/five_days_and_counting_tab.html ]
Guitar 1 [Distortion]
e|--------------------------------------------------------------------|
b|--------------------------------------------------------------------|
g|--------------------------------------------------------------------|
d|---9--9--9-----12--12--5-----5--5--5-----12--14--7------------------| [x2]
a|---x--x--x-----x---x---x-----x--x--x-----x---x---x------------------|
E|---7--7--7-----10--10--3-----3--3--3-----10--12--5------------------|
PM   .  .  .      .  .  .      .  .   .     .  .  .     

Guitar 2
e|--2---2---2---2---0---0---0---0------end-on-0~-4th-time-------------|
b|----3---3---3---3---3---3---3---3-----------------------------------|
g|--------------------------------------------------------------------|
d|--------------------------------------------------------------------| [x4] 
a|--------------------------------------------------------------------|
E|--------------------------------------------------------------------|



PRE-CHORUS

Guitar 2 [Clean]
e|--2-2-0-2---2-0-2-5-2-0-0---2-2-0-2---2-0-2-----0-------------------|
b|--------------------------------------------3-----------------------|
g|----------------------------------------------2---------------------|
d|--------------------------------------------------------------------| [x2]
a|--------------------------------------------------------------------|
E|--------------------------------------------------------------------|

CHORUS

Guitar 1 + Guitar 2
e|--------------------------------------------------------------------|
b|--------------------------------------------------------------------|
g|--11--11--9--11----11--9--11---14---11--9--9------------------------|
d|--x---x---x--x-----x---x--x----x----x---x--x------------------------|
a|--9---9---7--9-----9---7--9----12---9---7--7------------------------|
E|--------------------------------------------------------------------|

e|--------------------------------------------------------------------|
b|--------------------------------------------------------------------|
g|--11--11--9--11----11--9--11--7-----9-------------------------------|
d|--x---x---x--x-----x---x--x---x--7--x-------------------------------| [x2] 
a|--9---9---7--9-----9---7--9---5--x--7-------------------------------|
E|---------------------------------5----------------------------------|

SOLO

Guitar 2 [Clean]
e|--2~----5~-----2~-------0~------------------------------------------|
b|-----3~----3~-----3~------------------------------------------------|
g|---------------------2~---------------------------------------------|
d|--------------------------------------------------------------------| [x4]
a|--------------------------------------------------------------------|
E|--------------------------------------------------------------------|

INTRO

Guitar 1 [DISTORTION]
e|--------------------------------------------------------------------|
b|--------------------------------------------------------------------|
g|--------------------------------------------------------------------|
d|--9--9--7--9-----7--9--7--9--11--12-----5--5--5-----5--5--5--7--9---| [x2]
a|--x--x--x--x-----x--x--x--x--x---x------x--x--x-----x--x--x--x--x---|
E|--7--7--5--7-----5--7--5--7--9---10-----3--3--3-----3--3--3--5--7---|
PM  .  .  .  .     .  .  .  .  .   .      .  .  .     .  .  .  .  .

Guitar 2
e|-------------------|
b|-------------------|
g|-------------------|
d|--------7*---------| [On second time around, right before chorus]
a|-------------------|
E|-------------------|

CHORUS

Guitar 1 + Guitar 2
e|--------------------------------------------------------------------|
b|--------------------------------------------------------------------|
g|--11--11--9--11----11--9--11---14---11--9--9------------------------|
d|--x---x---x--x-----x---x--x----x----x---x--x------------------------|
a|--9---9---7--9-----9---7--9----12---9---7--7------------------------|
E|--------------------------------------------------------------------|

e|--------------------------------------------------------------------|
b|--------------------------------------------------------------------|
g|--11--11--9--11----11--9--11--7-----9-------------------------------|
d|--x---x---x--x-----x---x--x---x--7--x-------------------------------| [x2] 
a|--9---9---7--9-----9---7--9---5--x--7-------------------------------|
E|---------------------------------5----------------------------------|

OUTRO

Guitar 1
e|--------------------------------------------------------------------|
b|--------------------------------------------------------------------|
g|--------------------------------------------------------------------|
d|--9--9--7--9-----7--9--7--9--11--12-----5--5--5-----5--5--5--7--9---| [x2]
a|--x--x--x--x-----x--x--x--x--x---x------x--x--x-----x--x--x--x--x---|
E|--7--7--5--7-----5--7--5--7--9---10-----3--3--3-----3--3--3--5--7---|

My real first tab, took me hours to complete, but i think its
pretty accurate, please rate. Comments to bulldawgs20@hotmail.com
Comments