Spiritualized - Stay With Me Chords & Tabs

 

Stay With Me Chords & Tabs

Spiritualized Chords & Tabs

Version: 1 Type: Chords 0 ratings
1 star 2 stars 3 stars 4 stars 5 stars
comments

Stay With Me Chords

   
Bass:


G------------------------------------------------|----------------------------------------------------------
D---------------------2-------4--------2--------|-----------------------2--------4------------------------
A------2------4---------------------------------|------2--------4-------------------------2---------------
E------------------------------------------------|----------------------------------------------------------

[ Tab from: http://www.guitartabs.cc/tabs/s/spiritualized/stay_with_me_crd.html ]
G------------------------------------------------|----------------------------------------------------------
D--------------------2------4-------------------|-----4---------------------------2------4---------2-----
A-----2-------4---------------------------------|----------------2------4---------------------------------
E-------------------------------------------------|----------------------------------------------------------






Stay with me

	E
Oh babe
			B
I love the way you slide
E			Fis
Stay with me
			E
Slide all the time, don’t go
			B
I love the way you smile
E			Fis
Stay with me
			E
Smile all the time, don’t go
			B
I love the way you’re mine
E			Fis
Stay with me
			E
Hold me all of the time


Oh babe
I love it when you slide
Stay with me
Slide all the time don’t go
I love the way you smile
Stay with me
Smile all the time, don’t go
I love the way you’re mine
Stay with me
Hold me all of the time


Oh babe
I love it when you slide
Stay with me
I love the way you`re mine
Don’t go
I love it when you smile
Stay with me
I love the way you’re mine
Don’t go
You make it all so fine
You make it all so fine



Comments