Spiritual Beggars - Angel Of Betrayal Chords & Tabs

 

Angel Of Betrayal Chords & Tabs

Spiritual Beggars Chords & Tabs

Version: 1 Type: Tab 0 ratings
1 star 2 stars 3 stars 4 stars 5 stars
comments

Angel Of Betrayal Tab

   
SPIRITUAL BEGGARS - Angel Of Betrayal
from the "Ad Astra" Album

Tabbed by Giacomo Fusetti (facethefall@supereva.it or hobbiville@libero.it)

Tuning: C F Bb Eb G C

x   muted strings
.   palm muting
v   vibrato
h   hammer-on
p   pull-off
sb  slow bend
fb  full bend
hb  half bend
AH  artificial harmonic


 Main Riff 
|------------------------------------------------|
|------------------------------------------------|
|-------------------------7----------------------|
|-2--2--x-x-x-x-7--7--x-x-7-7-7-5--x-2--2-2--x-x-|
|-2--2--x-x-x-x-5--5--x-x-5-5-5-5--x-2--2-2--x-x-|
|-0--0--x-x-x-x----------------------0--0-0--x-x-|


 
 Interlude
|---------0---------------0---------------0---------0-----0-------|clean gtr.
|-------0---0-----------0---0-----------0---0---------0-----0-----|
|-----5-------5-------4-------4-------5-------5---------4-----4---|
|---7-----------7---5-----------5---7-----------7---------------5-|
|-0-------------------------------0-------------------------------|
|-----------------0-------------------------------0---------------|


 

 Chorus
|--------------------------------------------------------|
|--------------------------------------------------------|
|-------7-7------------------------7-7-------------------|
|-5--5--7-7--7--7-7-2--2-2-2-5--5--7-7--7--7-7-7-7-7-7-7-|
|-5--5--5-5--7--7-7-2--2-2-2-5--5--5-5--7--7-7-7-7-7-7-7-|
|-3--3-------5--5-5-0--0-0-0-3--3-------5--5-5-5-5-5-5-5-|


|--------------------------------------------------------|
|--------------------------------------------------------|
|-------7-7----------------------------------------------|
|-5--5--7-7--7--7-7-2--2-2-2-5-5-5-5-5-5--9--9-9-9-9-9---|
|-5--5--5-5--7--7-7-2--2-2-2-5-5-5-5-5-5--9--9-9-9-9-9-\-|
|-3--3-------5--5-5-0--0-0-0-3-3-3-3-3-3--7--7-7-7-7-7-\-|


 
Rhythm under organ solo
|----------------------------------|x4
|----------------------------------|
|----------------------------------|
|----------------------------------|
|-4-4-4-44-44-4---4-4-4-44-44-4----|
|-2-2-2-22-22-2-012-2-2-22-22-2-01-|
  ................................

 
[ Tab from: http://www.guitartabs.cc/tabs/s/spiritual_beggars/angel_of_betrayal_tab.html ]
Solo I (0:09-0:17) - Rhythm: Main Riff
                     vvvvv               vvvv                          vvvv
|---------------------------------------------------15-------17-------19----20fbr--20-19-18-17--------------|
|-15fb--15fb--15fb--15fb----------------------10/12----12/14----14/15--------------------------20p17-20-sfb-|
|-------------------------14fbr-p12-14--12------------------------------------------------------------------|
|-----------------------------------------------------------------------------------------------------------|
|-----------------------------------------------------------------------------------------------------------|
|-----------------------------------------------------------------------------------------------------------|


 Solo II (2:17-2:25) - Rhythm: Main Riff
                     vvvv              vvv
|--------------------------------------------------------------------------------------------|w/wah wah
|-15--------AH---------------------AH-AH---/-------------------------------------------------|
|-14fbr-p12-14--12--------------12-14-12---/---12p11-----------------------------------------|
|-------------------14----12-14----------------------14p12-14p12-----------------------------|
|----------------------------------------------------------------14p12-14p12-----------------|
|----------------------------------------------------------------------------15p14-15-14-12--|


|-----------------------|
|-----------------------|
|-----------------------|
|------------12-14-12---|
|------12-14------------|
|-/15-------------------|



 Lead (3:13-3:21) - Rhythm: Chorus
              vvv            vvvvvvvvvvv
|-12fhb(15)r-12--/15-----------------------|
|---------------------------22fb-----------|
|------------------------------------------|
|------------------------------------------|
|------------------------------------------|
|------------------------------------------|


 Solo III (3:30-3:41) 
|------12-----12-----12-----12-----12-----12-----12-----12-----12-----12-----------12-|
|-15fb---15fb---15fb---15fb---15fb---15fb---15fb---15fb---15fb---15fb---15fb---15fb---|
|-------------------------------------------------------------------------------------|
|-------------------------------------------------------------------------------------|
|-------------------------------------------------------------------------------------|
|-------------------------------------------------------------------------------------|


|-15p12----12--------------------------------------------------------------------------------------|
|-------15----15-12-15p12----12--------------------------------------------------------------------|
|-------------------------14----14-12-14p12----12--------------------------------------------------|
|-------------------------------------------14----14-12-14p12----12--------------------------------|
|-------------------------------------------------------------14----14-12-14-----------------------|
|-----------------------------------------------------------------------------15--12--10h12p10-12--|



		
Comments