Spiritfall - My Reason Chords & Tabs

 

My Reason Chords & Tabs

Spiritfall Chords & Tabs

Version: 1 Type: Tab 0 ratings
1 star 2 stars 3 stars 4 stars 5 stars
comments

My Reason Tab

Spiritfall - My Reason
tab by rob scheidt

This is an awsome band that you've probably never heard of.
Download some of their music at mp3.com!
 http://artists.mp3s.com/artists/133/spiritfall.html

This is just a guide. 

1/2 step down
dropD


intro clean  (2x)
------------------------------------
------------------------------------
------7----9-----10----9--10-9--7---
----0--0-0---0-0---0-0--------------
------------------------------------
------------------------------------
  its a little more tricky than that but u kan get it
--------------------------------------
--------------------------------------
--------7----9-----10----9--12-12-12--
-(0)--0--0-0---0-0---0-0--------------
-(0)----------------------------------
-(0)----------------------------------
() add this in second time around


chorus...dist! 2x
--------------------------------------------------------------
---------------------------------------------)--bend that-----
--------10-10-10-10-10 10 10--------------12^-----bizatch!----
-0---0--x--x--x--x--x--x--x---7~~~---xxxx--x------------------
-0---0--8--8--8--8--8--8--8---7~~~---xxxx-10------------------
-0---0------------------------7~~~---xxxx---------------------

---------------------------------------------------------
---------------------------------------------------------
--------10-10-10-10-10 10 10---------12-/-10--10/-9---7--
-0---0--x--x--x--x--x--x--x---7~~~-x--x-/-x---x-/-x---x--
-0---0--8--8--8--8--8--8--8---7~~~-x-10-/-8---8-/-7---5--
-0---0------------------------7~~~-x---------------------
[ Tab from: http://www.guitartabs.cc/tabs/s/spiritfall/my_reason_tab.html ]
post-chorus
----------------------------------------------------
----------------------------------------------------
--10-10-10-10-10-10-10-10-12-12-12-12-12-12-12-12---
--10-10-10-10-10-10-10-10-12-12-12-12-12-12-12-12---
--8--8--8--8--8--8--8--8--10-10-10-10-10-10-10-10---
----------------------------------------------------

----------------------------------------------------
----------------------------------------------------
--7--7--7--7--7--7--7--7----------------------------
--7--7--7--7--7--7--7--7--0~~~----------------------
--5--5--5--5--5--5--5--5--0~~~----------------------
--------------------------0~~~----------------------

--------------------------------------------
--------------------------------------------
--------------------------------------------
-0-0--xxxx--0-0--xxxx--0-0--xxxx--0-0--xxxx-
-0-0--xxxx--0-0--xxxx--0-0--xxxx--0-0--xxxx-
-0-0--xxxx--0-0--xxxx--0-0--xxxx--0-0--xxxx-

Towards the end
--2x-clean-----------------------------------------------
----------------------------------------------------
--7~~~--9~~~--10~~--9~~~----------------------------
--7~~~--9~~~--10~~--9~~~----------------------------
--5~~~--7~~~--8~~~--7~~~----------------------------
----------------------------------------------------

-with dist.------------------------------------
-------------------------------------
-------------------------------------
-0~--0~--2~--2~--3~--3~--2~--2~------
-0~--0~--2~--2~--3~--3~--2~--2~------\
-0~--0~--2~--2~--3~--3~--2~--2~------ |
				      | do these a 
------------------------------------- |  couple times
-------------------------------------/
-------------------------------------
-0~--0~--2~--2~--3~--3~--5~--5~------
-0~--0~--2~--2~--3~--3~--5~--5~------
-0~--0~--2~--2~--3~--3~--5~--5~------

Comments