Spiritfall - Lost Chords & Tabs

 

Lost Chords & Tabs

Spiritfall Chords & Tabs

Version: 1 Type: Tab 0 ratings
1 star 2 stars 3 stars 4 stars 5 stars
comments

Lost Tab

#----------------------------------PLEASE NOTE--------------------------------#
#This file is the author's own work and represents their interpretation of the#
#song. You may only use this file for private study, scholarship, or research.#
#-----------------------------------------------------------------------------#
#-- File created with Instab - http://www.pconline.com/~smcarey/instab.html --#
#-----------------------------------------------------------------------------#

Transcribed by: Moonie
Email: Foley92986@aol.com

Not too many people have ever heard Spiritfall...this song kicks ass
Download it...

Drop D Tuning

Key:
r= Let ring

-------------------------------------------
-------------------------------------------
-------------------------------------------
-6-6-6-6-1-1-1-1-9-9-9-9-11-11-11-11-11-11-
-6-6-6-6-1-1-1-1-9-9-9-9-11-11-11-11-11-11-
-6-6-6-6-1-1-1-1-9-9-9-9-11-11-11-11-11-11-
 RIFF 1                                                                       

----------------------------------
----------------------------------
----------------------------------
-6-6-6-6-1-1-1-1-2-2-2-2--2-2-2-2-
-6-6-6-6-1-1-1-1-2-2-2-2--2-2-2-2-
-6-6-6-6-1-1-1-1-2-2-2-2--2-2-2-2-
RIFF 2

--------------------------------------------------------
--------------------------------------------------------
--------------------------------------------------------
-6-6-6-6-1-1-1-1-2-2-2-2--2-2-2-2--2-2-2-2--2-2-2-2--1r-
-6-6-6-6-1-1-1-1-2-2-2-2--2-2-2-2--2-2-2-2--2-2-2-2--1r-
-6-6-6-6-1-1-1-1-2-2-2-2--2-2-2-2--2-2-2-2--2-2-2-2--1r-
 RIFF 3                                                                       
[ Tab from: http://www.guitartabs.cc/tabs/s/spiritfall/lost_tab.html ]
---------------------------------------------------------------------------
---------------------------------------------------------------------------
---------------------------------------------------------------------------
-1-1-1-1-1-1-1-1-1-1-1-2-2-2-2-2-2-2-2-2-1-1-1-1-1-1-1-9-9-9-9-11-11-11-11-
-1-1-1-1-1-1-1-1-1-1-1-2-2-2-2-2-2-2-2-2-1-1-1-1-1-1-1-9-9-9-9-11-11-11-11-
-1-1-1-1-1-1-1-1-1-1-1-2-2-2-2-2-2-2-2-2-1-1-1-1-1-1-1-9-9-9-9-11-11-11-11-
 RIFF 4                                                                       

----------------------------------------------------------------
----------------------------------------------------------------
----------------------------------------------------------------
-6-6-6-6-6-6-6-9-9-9-9-9-9-9-4-4-4-4-4-4-4-11-11-11-11-11-11-11-
-6-6-6-6-6-6-6-9-9-9-9-9-9-9-4-4-4-4-4-4-4-11-11-11-11-11-11-11-
-6-6-6-6-6-6-6-9-9-9-9-9-9-9-4-4-4-4-4-4-4-11-11-11-11-11-11-11-
 RIFF 5                                                                       

-------------------------------------------------
-------------------------------------------------
-------------------------------------------------
-6-6-6-6-6-6-6-9-9-9-9-9-9-9-2-2-2-2-2-2-2-2-2-2-
-6-6-6-6-6-6-6-9-9-9-9-9-9-9-2-2-2-2-2-2-2-2-2-2-
-6-6-6-6-6-6-6-9-9-9-9-9-9-9-2-2-2-2-2-2-2-2-2-2-
 RIFF 6                                                                       


 ORDER:
 RIFF 1  
 RIFF 2 (PLAY RIFF 2 RIGHT AFTER RIFF 1 TWICE)
 RIFF 1
 RIFF 3
 RIFF 4 (x2)
 RIFF 1
 RIFF 2 (PLAY RIFF 2 RIGHT AFTER RIFF 1 TWICE)
 RIFF 1
 RIFF 3
 RIFF 4 (x2)
 RIFF 1
 RIFF 2 (PLAY RIFF 2 RIGHT AFTER RIFF 1 TWICE)
 RIFF 5 (PALM MUTE)
 RIFF 6 (PALM MUTE ON EVERYTHING BUT THE 2-2-2 CHORD)
 (PLAY RIFF 6 RIGHT AFTER RIFF 5 3 TIMES)
Comments