Spirit - Fresh Garbage Chords & Tabs

 

Fresh Garbage Chords & Tabs

Spirit Chords & Tabs

Version: 1 Type: Tab 0 ratings
1 star 2 stars 3 stars 4 stars 5 stars
comments

Fresh Garbage Tab

   
-------------------------------------------------------------------------------
			     SONG NAME - Band Name
-------------------------------------------------------------------------------
Tabbed by: sether
Email: slag@satx.rr.com

Tuning: standard

intro

e|--------------------------------------------------------------------|
B|--------------------------------------------------------------------|
G|------------7-9-5--------------xxxx14--xxxx9--xxxx10--xxxx----------|
D|----7-9-5-------------5h7------xxxx14--xxxx9--xxxx10--xxxx10--------|
A|----------5-------5h7----------xxxx12--xxxx7--xxxx8---xxxx10--------|
E|--5---------------------------------------------------xxxx8---------|


verse

e|-----------------------------------------------------------------------|
B|-----------------------------------------------------------------------|
G|----------------5--7------------12-----9-----------------------5--7----|
D|--7----5--7--9--3--7----7----5--12-12--9--10-12---7---5--7--9--5--7----|
A|--7----5--7--9--3--5----7----5--10-12--7--10-12---7---5--7--9--3--5----|
E|--5----3--5--7----------5----3-----10-----8--10---5---3--5--7----------|
[ Tab from: http://www.guitartabs.cc/tabs/s/spirit/fresh_garbage_tab.html ]
e|-------------------------------------|
B|-------------------------------------|
G|--7/9--7--5--7--5~-------------------|
D|-------------------7--5-7--5---------|
A|-----------------------------7--5~---|
E|-------------------------------------|

repeat this as needed

the second time this happens at the end u bend the last 5 a whole step up

solo(key board)

why the solo is happening there is a faitn part hard ot hear but it s alittle picking 
over an A chord i believe .then towards the end the guitar goes

e|---------------------------------------------------------------------------|
B|---------------------------------------------------------------------------|
G|---------------------------------------------------------------------------|
D|-------------------------------------/14--12--9--12------------------------|
A|--/12--10--7--10----/12--10--7--10-------------------/12--10--7--10----12--|
E|---------------------------------------------------------------------------|

and on that last 12 pick multiple times.. then back to the intro. and when u come back 
theres a slide down from 18 fret on E.


outro


e|-----------------------------------|
B|-----------------------------------|
G|--7/9--7--5--7--5~-----------------|
D|--------------------7--5-7--5/10\0-|
A|-----------------------------------|
E|-----------------------------------|

thats it ... have fun

| /  slide up
| \  slide down
| h  hammer-on
| p  pull-off
| ~  vibrato
| +  harmonic
| x  Mute note
===============================================================================
Comments