Spinfire - Weak Nights Chords & Tabs

 

Weak Nights Chords & Tabs

Spinfire Chords & Tabs

Version: 2 Type: Tab 0 ratings
1 star 2 stars 3 stars 4 stars 5 stars
comments

Weak Nights Tab

   
Spinfire - Weak Nights EP
By Rogério Oyama (rogeriooyama@yahoo.com.br)

E(x79977) A#(x24422)
D(x57755) C(x35533)

E|---------------------|
B|---------------------|
G|-------7-7-7-5-5-7-x-|
D|-----5-7-7-7-5-5-7-x-|
A|-5h7---5-5-5-3-3-5-x-|
E|---------------------|

I lay in bed awake just wishin you were here, 
I can't sleep at all
We both know only time can tell what can become
Of what you know I really want
I lay in bed awake just wishin you were here
I can't sleep at all
We both know only time can tell what can become
Of what you know I really want
E           D               C
I wish that this could last forever
E           D                C
But I need for you to want it to
E           D              C
How can we make it till tomorrow
 
E|-------------------------|
B|-------------------------|
G|-----9-------7-------5-5-|
D|---9---9---7---7---5---5-|
A|-7-------5-------3-----3-|
E|-------------------------|
If you think today is the end, so come on

E|---------------------|
B|---------------------|
G|-------7-7-7-5-5-7-x-|
D|-----5-7-7-7-5-5-7-x-|
A|-5h7---5-5-5-3-3-5-x-|
E|---------------------|

E|--------------------------------------|
B|--------------------------------------|
G|--------------------------------------|
D|-------------------------12/14-12-14b-|
A|-14-12-11-12-11-11h12-11--------------|
E|--------------------------------------|
[ Tab from: http://www.guitartabs.cc/tabs/s/spinfire/weak_nights_tab_ver_2.html ]
E|---------------------|
B|---------------------|
G|-------7-7-7-5-5-7-x-|
D|-----5-7-7-7-5-5-7-x-|
A|-5h7---5-5-5-3-3-5-x-|
E|---------------------|
I lay in bed awake just hopin you'll come back
An hour passes by with no call at all
I try to figure out where I have gone wrong
Hopin' you feel the same about me, and maybe babe
E           D               C
I wish that this could last forever
E           D                C
But I need for you to want it to
E           D              C
How can we make it till tomorrow
E            D             C
If you think today is the end
A#                 C
And I open my eyes and you were almost gone 
D                           E
Said I really got a wake up call
A#                                 C
And I know that things are bad now but it wasn't ever
D                   E
I wanna be with you forever and ever and ever

Solo:
E|----------------------------------------------------------------------|
B|----------------------------------------------------------------------|
G|-------------12~-12-14/16-16b-14-12~-14-12----------------------------|
D|-12h14-12-14-------------------------------14-12~-------12~------12-12|
A|--------------------------------------------------12-14-----12-14-----|
E|----------------------------------------------------------------------|

E|---------------------------------|
B|---------------------------------|
G|----12-12-12-12h14-14-14-14-14b--|
D|14-------------------------------|
A|---------------------------------|
E|---------------------------------|

E           D               C
I wish that this could last forever
E           D                C
But I need for you to want it to
E           D              C
How can we make it till tomorrow
E            D             C
If you think today is the end
E           D               C
I wish that this could last forever
E           D                C
But I need for you to want it to
E           D              C
How can we make it till tomorrow

E|-------------------------| (x4)
B|-------------------------|
G|-----9-------7-------5-5-|
D|---9---9---7---7---5---5-|
A|-7-------5-------3-----3-|
E|-------------------------|
If you think today is the end
Comments