Spinfire - Waiting Chords & Tabs

 

Waiting Chords & Tabs

Spinfire Chords & Tabs

Version: 1 Type: Tab 0 ratings
1 star 2 stars 3 stars 4 stars 5 stars
comments

Waiting Tab

Spinfire - Waiting
Tabbed By Sylwester Sosnowski
Date - 8th March 2005

Da ich keine richtigen und vollständigen TABs gefunden habe,
habe ich mir selbst welche gemacht.
Der TAB dürfte zu 100% richtig sein :P Wenn ihr etwas nicht checkt oder sonst etwas
auf dem Herzen habt, dann mailt mir: EvanTaubenfeld@web.de 
Viel Spaß !!!


Comment: I think it's 100% right, if you have any questions, comments, requests, or
just wanna bitchin':D mail me: EvanTaubenfeld@web.de

Have fun with this awesome song !

  Figure out the right timing, rythm, slides and push/pull of bending.

     *=natural harmonic       If there is such like this:
  p.m.=palm mute              e|-----------------|e|-----------------|
     >=slide up               b|-----------------|b|-----------------|
     <=slide down             g|-----------------|g|-----------------|
     ^=bend                   D|-----------------|D|-----------------|
     p=pull off               A|-----------------|A|-----------------|
     ~=vibrato                E|-----------------|E|-----------------|
                                         Play this together.
                              Or: Guitar 1      and   Guitar 2

OK - LET'S ROCK !!! :D 
 
INTRO
         
e|-------------------------------------|
b|-------------------------------------|
g|-------------------------------------|
D|--2-------2-2------------------------|     2x
A|--2-------2-2------------------------|
E|--0--xxx--0-0--x---------------------|


e|-------------------------------------|
b|-------------------------------------|
g|-------------------------------------|
D|--6-------6-6------------------------|     2x
A|--6-------6-6------------------------|
E|--4--xxx--4-4--x*--------------------|


e|-------------------------------------|e|-------------------------------------|
b|-------------------------------------|b|-------------------------------------|
g|-------------------------------------|g|--4-4>6-6>8-8>9-9--------------------|     
D|--2---------------2------------------|D|--x-x>x-x>x-x>x-x--------------------|                      
A|--2---------------2------------------|A|--2-2>4-4>6-6>7-7--------------------|                      
E|--0---------------0------------------|E|-------------------------------------|                      


e|-------------------------------------|e|-------------------------------------|
b|-------------------------------------|b|-------------------------------------|
g|-------------------------------------|g|--8-8<6-6<4-4<3-3--------------------|
D|--6---------------6------------------|D|--x-x6-6>8-8>9-9--------------------|     
D|--2---------------2------------------|D|--x-x>x-x>x-x>x-x--------------------|                      
A|--2---------------2------------------|A|--2-2>4-4>6-6>7-7--------------------|                      
E|--0---------------0------------------|E|-------------------------------------|                      


e|-------------------------------------|e|-------------------------------------|
b|-------------------------------------|b|-------------------------------------|
g|-------------------------------------|g|--8-8<6-6<4-4<3-3--------------------|                      
D|--6---------------6------------------|D|--x-x6-6>8-8>9-9--------------------|     
D|--2---------------2------------------|D|--x-x>x-x>x-x>x-x--------------------|                      
A|--2---------------2------------------|A|--2-2>4-4>6-6>7-7--------------------|                      
E|--0---------------0------------------|E|-------------------------------------| 
                      
    you       forever

e|-------------------------------------|e|-------------------------------------|
b|-------------------------------------|b|-------------------------------------|
g|-------------------------------------|g|--8-8<6-6<4-4<3-3--------------------|                      
D|--6---------------6------------------|D|--x-x6-6>8-8>9-9--------------------|     
D|--2---------------2------------------|D|--x-x>x-x>x-x>x-x--------------------|                      
A|--2---------------2------------------|A|--2-2>4-4>6-6>7-7--------------------|                      
E|--0---------------0------------------|E|-------------------------------------|

Chorus

   Long   Cuz your  going away but

e|-------------------------------------|                      
b|-------------------------------------|                      
g|-------------------------------------|                                            
D|--4----4--4-4-4---6----6--6-6-6------|                                            
A|--4----4--4-4-4---6----6--6-6-6------|                                            
E|--2-2*-2--2-2-2---4-4*-4--4-4-4------|   
 
   I'll still be here waiting for                                       

   p.m.--   p.m.--   p.m.--   p.m.--
e|-------------------------------------|                      
b|-------------------------------------|                      
g|-------------------------------------|                                            
D|--------2--------2--------2--------2-|                                            
A|--------2--------2--------2--------2-|                                           
E|-0--0-0-0-0--0-0-0-0--0-0-0-0--0-0-0-|  
                      
   you  Cuz you're  going away but                                                                   

e|-------------------------------------|                      
b|-------------------------------------|                      
g|-------------------------------------|                                            
D|--4----4--4-4-4---6----6--6-6-6------|                                            
A|--4----4--4-4-4---6----6--6-6-6------|                                            
E|--2-2*-2--2-2-2---4-4*-4--4-4-4------|

   I'll still be here waiting for                                           
 
   p.m.--   p.m.--   p.m.--   p.m.--
e|-------------------------------------|                      
b|-------------------------------------|                      
g|-------------------------------------|                                         
D|--------2--------2--------2--------2-|                                        
A|--------2--------2--------2--------2-|                                         
E|-0--0-0-0-0--0-0-0-0--0-0-0-0--0-0-0-|  

   you  Waitin' for you I'm waitin'       
 
e|-------------------------------------|                      
b|-------------------------------------|                      
g|-------------------------------------|                                            
D|--4----4--4-4-4---6----6--6-6-6------|                                            
A|--4----4--4-4-4---6----6--6-6-6------|                                            
E|--2-2*-2--2-2-2---4-4*-4--4-4-4------|
  
  for you          

e|-------------------------------------|                      
b|-------------------------------------|                      
g|-------------------------------------|                      
D|-2---------2--2--2--2--2-------------|                      
A|-2---------2--2--2--2--2-------------|                      
E|-0---------0--0--0--0--0-------------|  

Verse

  So scared      so afraid
 
  p.m.--         p.m.--
e|-------------------------------------|
b|-------------------------------------|
g|-------------------------------------|
D|---------2-------------2-------------|
A|---------2-------------2-------------|
E|-0--0-0--0-----0--0-0--0-------------|

  So alone you left me yesterday

  p.m.--         p.m.--
e|-------------------------------------|
b|-------------------------------------|
g|-------------------------------------|
D|---------6-------------6-------------|
A|---------6-------------6-------------|
E|-4--4-4--4-----4--4-4--4-------------|

  I think        you forgot to say 

  p.m.--         p.m.--
e|-------------------------------------|
b|-------------------------------------|
g|-------------------------------------|
D|---------2-------------2-------------|
A|---------2-------------2-------------|
E|-0--0-0--0-----0--0-0--0-------------|

  Good-bye 

  p.m.--         p.m.--
e|-------------------------------------|
b|-------------------------------------|
g|-------------------------------------|
D|---------6-------------6-------------|
A|---------6-------------6-------------|
E|-4--4-4--4-----4--4-4--4-------------|

Pre-Chorus
    
    I'll be         there for 

e|-------------------------------------|e|-------------------------------------|                      
b|-------------------------------------|b|-------------------------------------|
g|-------------------------------------|g|--4-4>6-6>8-8>9-9--------------------|     
D|--2---------------2------------------|D|--x-x>x-x>x-x>x-x--------------------|                      
A|--2---------------2------------------|A|--2-2>4-4>6-6>7-7--------------------|                      
E|--0---------------0------------------|E|-------------------------------------| 
                      
    you       forever

e|-------------------------------------|e|-------------------------------------|
b|-------------------------------------|b|-------------------------------------|
g|-------------------------------------|g|--8-8<6-6<4-4<3-3--------------------|                      
D|--6---------------6------------------|D|--x-x[ Tab from: http://www.guitartabs.cc/tabs/s/spinfire/waiting_tab.html ]
e|-------------------------------------|e|-------------------------------------|                      
b|-------------------------------------|b|-------------------------------------|
g|-------------------------------------|g|--4-4>6-6>8-8>9-9--------------------|     
D|--2---------------2------------------|D|--x-x>x-x>x-x>x-x--------------------|                      
A|--2---------------2------------------|A|--2-2>4-4>6-6>7-7--------------------|                      
E|--0---------------0------------------|E|-------------------------------------|

Chorus

   Long   Cuz your  going away but

e|-------------------------------------|                      
b|-------------------------------------|                      
g|-------------------------------------|                                            
D|--4----4--4-4-4---6----6--6-6-6------|                                            
A|--4----4--4-4-4---6----6--6-6-6------|                                            
E|--2-2*-2--2-2-2---4-4*-4--4-4-4------|

   I'll still be here waiting for                                       

   p.m.--   p.m.--   p.m.--   p.m.--
e|-------------------------------------|                      
b|-------------------------------------|                      
g|-------------------------------------|                                            
D|--------2--------2--------2--------2-|                                            
A|--------2--------2--------2--------2-|                                           
E|-0--0-0-0-0--0-0-0-0--0-0-0-0--0-0-0-|  
                      
   you  Cuz you're  going away but                                                                   

e|-------------------------------------|                      
b|-------------------------------------|                      
g|-------------------------------------|                                            
D|--4----4--4-4-4---6----6--6-6-6------|                                            
A|--4----4--4-4-4---6----6--6-6-6------|                                            
E|--2-2*-2--2-2-2---4-4*-4--4-4-4------|

   I'll still be here waiting for                                           
 
   p.m.--   p.m.--   p.m.--   p.m.--
e|-------------------------------------|                      
b|-------------------------------------|                      
g|-------------------------------------|                                         
D|--------2--------2--------2--------2-|                                        
A|--------2--------2--------2--------2-|                                         
E|-0--0-0-0-0--0-0-0-0--0-0-0-0--0-0-0-|  

   you  Waitin' for you I'm waitin'       
 
e|-------------------------------------|                      
b|-------------------------------------|                      
g|-------------------------------------|                                            
D|--4----4--4-4-4---6----6--6-6-6------|                                            
A|--4----4--4-4-4---6----6--6-6-6------|                                            
E|--2-2*-2--2-2-2---4-4*-4--4-4-4------|
  
  for you          

e|-------------------------------------|                      
b|-------------------------------------|                      
g|-------------------------------------|                      
D|-2---------2--2--2--2--2---x-x-------|                      
A|-2---------2--2--2--2--2---x-x-------|                      
E|-0---------0--0--0--0--0---x-x-------|  

Bridge I

e|-------------------------------------|                      
b|-------------------------------------|                      
g|-------------------------------------|                      
D|-2-----------------------------------|                      
A|-2-----------------------------------|                      
E|-0-----------------------------------|    

e|-------------------------------------|                      
b|-------------------------------------|                      
g|-------------------------------------|                      
D|-6-----------------------------------|                      
A|-6-----------------------------------|                      
E|-4-----------------------------------| 

e|-------------------------------------|                      
b|-------------------------------------|                      
g|-------------------------------------|                      
D|-2-----------------------------------|                      
A|-2-----------------------------------|                      
E|-0-----------------------------------|    

e|-------------------------------------|                      
b|-------------------------------------|                      
g|-------------------------------------|                      
D|-6-----------------------------------|                      
A|-6-----------------------------------|                      
E|-4-----------------------------------|  

Solo

                     Waitin' forever

e|-------------------------------------|e|-------------------------------------|                    
b|-------------------------------------|b|----16--12----16---------------------|                   
g|-------------------------------------|g|-13--------16------------------------|                    
D|-2-----------------------------------|D|-------------------------------------|                    
A|-2-----------------------------------|A|-------------------------------------|                    
E|-0-----------------------------------|E|-------------------------------------|

                 I'm waitin' forever

e|-------------------------------------|e|-------------------------------------|                    
b|-------------------------------------|b|----16--12----16----------17-12------|                   
g|-------------------------------------|g|-13--------16------------------------|                    
D|-6-----------------------------------|D|-------------------------------------|                    
A|-6-----------------------------------|A|-------------------------------------|                    
E|-4-----------------------------------|E|-------------------------------------| 

                         Waitin' for 

   p.m.-----------
e|-------------------------------------|e|-------------------------------------|                    
b|-------------------------------------|b|---16-12--16-12--16--16-12--16-12--16|                   
g|-------------------------------------|g|-13-----13-----13--13-----13-----13--|                    
D|-2-2-2-2-2-2-2-2-2-2-2-2-2-2-2-2-----|D|-------------------------------------|                    
A|-2-2-2-2-2-2-2-2-2-2-2-2-2-2-2-2-----|A|-------------------------------------|                    
E|-0-0-0-0-0-0-0-0-0-0-0-0-0-0-0-0-----|E|-------------------------------------|

   you

e|-------------------------------------|e|-------------------------------------|                    
b|-------------------------------------|b|---16-12--16-12-14-16--16-12--16-12--|                   
g|-------------------------------------|g|-13-----13-----------13-----13-----13|                    
D|-6-6-6-6-6-6-6-6-6-6-6-6-6-6-6-6-----|D|-------------------------------------|                    
A|-6-6-6-6-6-6-6-6-6-6-6-6-6-6-6-6-----|A|-------------------------------------|                    
E|-4-4-4-4-4-4-4-4-4-4-4-4-4-4-4-4-----|E|-------------------------------------|

e|-------------------------------------|e|-11------12-11----11-12-14-----------|                    
b|-------------------------------------|b|---------------12--------------------|                   
g|-------------------------------------|g|-------------------------------------|                    
D|-2-----------------------------------|D|-------------------------------------|                    
A|-2-----------------------------------|A|-------------------------------------|                    
E|-0-----------------------------------|E|-------------------------------------|

e|-------------------------------------|e|-14^-14^-14^--12-11-12-11------------|                    
b|-------------------------------------|b|---------------------------12--------|                   
g|-------------------------------------|g|-------------------------------------|                    
D|-6-----------------------------------|D|-------------------------------------|                    
A|-6-----------------------------------|A|-------------------------------------|                    
E|-4-----------------------------------|E|-------------------------------------|

e|-------------------------------------|e|-------------------------------------|                    
b|-------------------------------------|b|---12~~~~~-12--14-14^----------------|                   
g|-------------------------------------|g|-------------------------------------|                    
D|-2-----------------------------------|D|-------------------------------------|                    
A|-2-----------------------------------|A|-------------------------------------|                    
E|-0-----------------------------------|E|-------------------------------------|
 
   Oh yeah Cuz you're going away but 

e|-------------------------------------|e|-------------------------------------|
b|-------------------------------------|b|-------------------------------------|
g|-------------------------------------|g|--3-----------------4----------------|                      
D|--4----4--4-4-4---6----6--6-6-6------|D|--x-----------------x----------------|                      
A|--4----4--4-4-4---6----6--6-6-6------|A|--1-----------------2----------------|                      
E|--2-2*-2--2-2-2---4-4*-4--4-4-4------|E|-------------------------------------|   

   I'll still be here waitin' for                 

   p.m.--   p.m.--   p.m.--   p.m.--
e|-------------------------------------|e|-------------------------------------|
b|-------------------------------------|b|-------------------------------------|
g|-------------------------------------|g|--9--------8--------6--------4-------|                      
D|--------2--------2--------2--------2-|D|--x--------x--------x--------x-------|                      
A|--------2--------2--------2--------2-|A|--7--------6--------4--------2-------|                     
E|-0--0-0-0-0--0-0-0-0--0-0-0-0--0-0-0-|E|-------------------------------------|

   you   Cuz you're going away but

e|-------------------------------------|e|-------------------------------------|
b|-------------------------------------|b|-------------------------------------|
g|-------------------------------------|g|--3-----------------4----------------|                      
D|--4----4--4-4-4---6----6--6-6-6------|D|--x-----------------x----------------|                      
A|--4----4--4-4-4---6----6--6-6-6------|A|--1-----------------2----------------|                      
E|--2-2*-2--2-2-2---4-4*-4--4-4-4------|E|-------------------------------------|

   I'll still     be here waitin' for

   p.m.--   p.m.--     p.m.---------
e|-------------------------------------|e|-------------------------------------|
b|-------------------------------------|b|-------------------------------------|
g|-------------------------------------|g|--9--------8--------6--------4-------|                      
D|--------2--------2-------------------|D|--x--------x--------x--------x-------|                      
A|--------2--------2-------------------|A|--7--------6--------4--------2-------|                     
E|-0--0-0-0-0--0-0-0---0-0-0-0-0-0-0---|E|-------------------------------------|
    
Bridge II

   you Waitin' for you I'm waitin' for Yes I'm waiting for you 
                                      
e|-------------------------------------|e|-------------------------------------|
b|-------------------------------------|b|-------------------------------------|
g|-3---4---9--11---13---16-15--16------|g|-------------------------------------|
D|-x---x---x---x----x----x--x---x------|D|-4---6---2---4---6---9---8---9-------|
A|-1---2---7---9---11---14-13--14------|A|-4---6---2---4---6---9---8---9-------|
E|-------------------------------------|E|-2---4---0---2---4---7---6---7-------|

Outro
 
   Yeaaaaaaaaaaaaaaaaaaaaaaaaaaaaaaa

   p.m.--   p.m.--   p.m.--   p.m.--
e|-------------------------------------|                      
b|-------------------------------------|                      
g|-------------------------------------|                                            
D|--------2--------2--------2--------2-|                                            
A|--------2--------2--------2--------2-|                                           
E|-0--0-0-0-0--0-0-0-0--0-0-0-0--0-0-0-|
 
   aahhhhhhhhhhhhhhh

   p.m.--   p.m.--
e|-------------------------------------|                      
b|-------------------------------------|                      
g|-------------------------------------|                                            
D|--------2--------2-----2--2--2---2-2-|                                            
A|--------2--------2-----2--2--2---2-2-|                                           
E|-0--0-0-0-0--0-0-0-----0--0--0---0-0-|
Comments