Spinfire - There You Arent Chords & Tabs

 

There You Arent Chords & Tabs

Spinfire Chords & Tabs

Version: 1 Type: Chords 0 ratings
1 star 2 stars 3 stars 4 stars 5 stars
comments

There You Arent Chords

   
Band:   Spinfire
Album:  Spinfire
Song:   There You Aren't
Tuning: EADGBe 

Tabbed by JamesV

| h  Hammer-on
| s  Slide to next
Chords in < > are optional and played after the
bridge solo with no effects, probably acoustic.

C#5     4--4--6--6--x--x
C5      8--10-10-x--x--x
A5      5--7--7--x--x--x
B5      7--9--9--x--x--x
E5(VII) 0--7--9--9--x--x
F#5     2--4--4--x--x--x
G#5     4--6--6--x--x--x
C#m     x--4--6--6--5--x
Esus2   x--7--9--9--7--7
A       5--7--7--6--5--5

There You Aren't
--------------------

C#5    A5         B5
C#5    A5         B5
           Come On  Come On 

C#5    A5         B5 x4

C#5     A5       B5     C#5      A5   B5
   How come everytime I see you 
C#5        A5        B5      C#5      A5   B5
           we end up in a fight 
C#5    A5               B5       C#5      A5         B5
     I don't know why I wanna be with you            You're
   C#5   A5   B5   C#5    A5         B5
 resisting me with all your might 
     F#5    G#5   A5       B5         
Yes, I dont know, what you want,
         C#5  A5 B5       C#5  A5 B5
e|-12-------------------------------------------|
B|-------9~~------------------------------------|
G|----------------------9~~~~-------------------|
D|------------------------9~~-------------------|
A|----------------------------------------------|
E|----------------------------------------------|
   From  me

C#5         A5    B5     C#5    A5     B5
       I used to be so special to you 
C#5     A5             B5   C#5    A5         B5
      Now I'm nothing at all 
C#5     A5          B5 C#5    A5         B5
       Never before in my life        Has my
C#5  A5    B5   C#5    A5         B5
heart felt this small 
[ Tab from: http://www.guitartabs.cc/tabs/s/spinfire/there_you_arent_crd.html ]
    F#5     G#5  A5       B5
Yes I don't know what you want from me 
     F#5  G#5       A5                   G#5   
I've given you my   heart, it's all I've got Yeah, baby 

C#5                        E5(VII)
     I don't know to stay with you 
           A5                B5    C5
cuz here I am  And there you aren't 

C#5                        E5(VII)
     I don't know to stay with you 
           A5                B5    C5
cuz here I am  And there you aren't 

C#5        A5   x4

     F#5     #5            A5       B5
Yes I don't know what you want from me 
     F#5   G#5      A5                   G#5   
I've given you my   heart, it's all I've got Yeah, baby 

C#5                        E5(VII)
     I don't know to stay with you 
           A5                B5    C5
cuz here I am  And there you aren't    x2
Come on
   C#5           A5
e|---------------4h5-4---4h5-4------------------|
B|-5--5-5--5-5--------5-------5---5-------------|
G|--6--6-6--6-6--------6-------6---6------------|
D|----------------------------------------------|
A|----------------------------------------------|
E|----------------------------------------------|
   C#5           A5
e|---------------4s7-9-7-4----------------------|
B|--5-5-5-5-5-------------5---------------------|
G|---6-6-6-6-6-------------6-6------------------|
D|----------------------------------------------|
A|----------------------------------------------|
E|----------------------------------------------|
N.C
Cuz I don't know to stay with you 
cuz here I am  And there you aren't 
<C#m                        Esus2
   Cuz I don't know to stay with you 
           A      >         B5         C#5
cuz here I am  And there you there you aren't 

C#5                        E5(VII)
     I don't know to stay with you 
           A5                B5    C5
cuz here I am  And there you aren't    x2

C#5                       E5(VII)
Cuz I don't know, I don't know 
                          A5
I don't know, see I don't know  
          B5    C5   
There you aren't                       x2

C#5 A5  E5(VII) B5                     x2
Comments