Spineshank - Transparent Chords & Tabs

 

Transparent Chords & Tabs

Spineshank Chords & Tabs

Version: 2 Type: Bass Tab 0 ratings
1 star 2 stars 3 stars 4 stars 5 stars
comments

Transparent Bass Tab

Artist: 	Spineshank
Track:		Transparent
Album:		The Height Of Callousness
Transcribed by: Mart
Email:		freakonaleash001@hotmail.com

Main riff x 4
Verse x 4
Bridge x 4
Chorus x 4
Chorus part 2 x 4
Verse x 4
Bridge x 4
Chorus x 4
Chorus part 2 x 4
Main Riff x 4
Breakdown x 5
Chorus part 2 x 8
Main Riff x 4
Outro x 1

Main Riff
G|-------------------------|
D|--------------222-3333---|
A|-0-00-1-0 000------------|
E|-------------------------|
[ Tab from: http://www.guitartabs.cc/tabs/s/spineshank/transparent_btab_ver_2.html ]
Verse 				Bridge
G|---------------|		G|--------------|
D|---------------|	 	D|--------------|
A|-2-0-2---2-0-2-|		A|-2-0-2-0-20---|
E|---------------|		E|--------------|

Chorus				Chorus part 2 
G|---------------------|	G|--------------------------|
D|-------------5-55-4--| 	D|-------2-222-3-333-0-000--|
A|-2-0-2-0-20----------|	A|-0-000--------------------|
E|---------------------|	E|--------------------------|

Breakdown 			Outro 
G|--------------|		G|-------|
D|----22-33-00--|		D|-------|
A|-00-----------|		A|-0-(0)-|
E|--------------|		E|-------|
Comments