Spineshank - Synthetic Chords & Tabs

 

Synthetic Chords & Tabs

Spineshank Chords & Tabs

Version: 2 Type: Tab 0 ratings
1 star 2 stars 3 stars 4 stars 5 stars
comments

Synthetic Tab

#-----------------------------------------------------------------------------#
#-- File created with Instab - http://www.pconline.com/~smcarey/instab.html --#
#-----------------------------------------------------------------------------#

Author/Artist: Spineshank
Title: Synthetic
Album: The Height of Callousness
Transcribed by: Higgo
Email: turrican666@hotmail.com

I don't think this is 100% correct but it sounds okay if you play  it with people, there's some harmonics at the end I couldn't be bothered to do plus I don't have a wah pedal so it would sound bad

------------------------------------------------------------------------------
------------------------------------------------------------------------------
-3-3-3-3-3-5--6-6-6-6-6-------------------------------------------------------
-3-3-3-3-3-5--6-6-6-6-6--4-4-4-4-4--------------------------------------------
-1-1-1-1-1-3--4-4-4-4-4--4-4-4-4-4--------------------------------------------
-------------------------4-4-4-4-4--------------------------------------------
 intro and chorus                                                             
[ Tab from: http://www.guitartabs.cc/tabs/s/spineshank/synthetic_tab_ver_2.html ]
-------------------------------|----------------------------------------------
-------------------------------|----------------------------------------------
-------------------------------|----------------------------------------------
-------------------------------|-3-3-3--4--1-1-1-1-1--------------------------
-------------------------------|-3-3-3--4--1-1-1-1-1--------------------------
-7---3---7---3---7---3---7---3-|-3-3-3--4--1-1-1-1-1--------------------------
 verse: let ring               | Repeat 4 times                               

------------------------------------------------------------------------------
------------------------------------------------------------------------------
-5-5-5-5-4-4-11-11-11---------------------------------------------------------
-5-5-5-5-4-4-11-11-11---------------------------------------------------------
-3-3-3-3-2-2-9--9--9----------------------------------------------------------
------------------------------------------------------------------------------
 played between verse and chorus                                              

------------------------------------------------------------------------------
------------------------------------------------------------------------------
---------------11-------------------------------------------------------------
-10-10-10-10-9-11-------------------------------------------------------------
-10-10-10-10-9-9--------------------------------------------------------------
-10-10-10-10-9----------------------------------------------------------------
 before verse 3                                                               

------------------------------------------------------------------------------
------------------------------------------------------------------------------
------------------------------------------------------------------------------
------------------------------------------------------------------------------
------------------------------------------------------------------------------
-3-3-3-3-3-3-3-3-3-4-4-4-4\1-1-1----------------------------------------------
 verse 3 palm-mute and grdually release                                       

Comments