Spineshank - New Disease Chords & Tabs

 

New Disease Chords & Tabs

Spineshank Chords & Tabs

Version: 1 Type: Chords 0 ratings
1 star 2 stars 3 stars 4 stars 5 stars
comments

New Disease Chords

new disease

spineshank

tab by marcelo f vieira
bodedomal@bol.com.br


tuned down dgcfad 

d----|-----
a----|-----
f----|-----
c----|-----
g----|-----
d(c)-|-----



INTRO CHORUS

V***********************************
---------------------------
---------------------------
-5-------------------------
-5------4-----3-----1------GT1
-3------4-----3-----1------
-3------4-----3-----1------

-3-3-3-3--3-3-3-3--3-3-3-3-
-X-X-X-X--X-X-X-X--X-X-X-X-
-5-5-5-5--5-5-5-5--5-5-5-5-GT2
---------------------------
-3--------4------3-----1---
---------------------------


VERSE

---------
---------
---------
---------
-0-0--00-
-0-0--00-
-0-0--00-

PM        ********
----------------------
----------------------
----------------------
----------------------
--0-0---0-------------
--0-0---0-0101010-----
--0-0---0-------------
  

[ Tab from: http://www.guitartabs.cc/tabs/s/spineshank/new_disease_crd.html ]
-----------------------
-----------------------
-----------------------
---0------------3------
---0--0-0--0-0---------
---0-------------------



BRIGDE


------------------------|---------------------
------------------------|---------------------
------------------------|---------------------
------------------------_---------------------
--0---------------------|---------------------
---1-0--X-X0-X~~--------|--0-1-0-0-32---------


------------------------------
------------------------------
------------------------------
------------------------------
-0----0--2--1-----------------
-0----0--2--1-----------------

OUTRO

--------------------------------------------
--------------------------------------------
---5-5-5-----5-5-5-----5-5-5-----3-3-33----- 
--------------------------------------------
-3----3-3-----------------------------------
-----------4----4-4--3----3-3--1----1-------
Comments