Spineshank - Detached Chords & Tabs

 

Detached Chords & Tabs

Spineshank Chords & Tabs

Version: 1 Type: Bass Tab 0 ratings
1 star 2 stars 3 stars 4 stars 5 stars
comments

Detached Bass Tab

Artist - Spineshank
Song - Detached
Album - Strickly Diesel

Intro
|-----------------------------------------------------------------|
|-----------------------------------------------------------------|
|-----------------------------------------------------------------| 
|-0-0-0-0-0-0-0-0-8-8-8-8-7-7-7-7-0-0-0-0-0-0-0-0-8-8-8-8-7-7-7-7-|

Verse [Same as intro]
|-----------------------------------------------------------------|
|-----------------------------------------------------------------|
|-----------------------------------------------------------------| 
|-0-0-0-0-0-0-0-0-8-8-8-8-7-7-7-7-0-0-0-0-0-0-0-0-8-8-8-8-7-7-7-7-|
[ Tab from: http://www.guitartabs.cc/tabs/s/spineshank/detached_btab.html ]
Chorus [Same as intro]
|-----------------------------------------------------------------|
|-----------------------------------------------------------------|
|-----------------------------------------------------------------|
|-0-0-0-0-0-0-0-0-8-8-8-8-7-7-7-7-0-0-0-0-0-0-0-0-8-8-8-8-7-7-7-7-|

1st part to bridge
|----------------------------------------------|
|----------------------------------------------|
|----------------------------------------------|
|-0-1-1-1-1-0-0-0-1-1-1--0-1-1-1-1-0-0-0-1-1-1-|

2nd part to bridge
|----------------------------------------------|
|----------------------------------------------|
|----------------------------------------------|
|-0-1-3-3-3-0-0-0-3-3-1--0-1-3-3-3-0-0-0-3-3-1-|
Comments