Spineshank - 28 Chords & Tabs

 

28 Chords & Tabs

Spineshank Chords & Tabs

Version: 1 Type: Tab 0 ratings
1 star 2 stars 3 stars 4 stars 5 stars
comments

28 Tab

Artist - Spineshank
Song - *28
Album - Strickly Diesel

Tuning: Tune down one and a half steps then drop D one.
Characters: ~ = vibrato

Intro
|------------------------------------| 
|------------------------------------| 
|------------------------------------| 
|------------------------------------| 
|------------------------------------| 
|-0--0--0--1--0--0--0--0--0--0--0--1-| 

Verse
|-----------------| 
|-----------------| 
|----------7--7-7-| 
|----------x--x-x-| 
|-0--------5--6-5-| 
|-0---------------| 

Chorus [It's all inside..] 
|----------------------| 
|----------------------| 
|-7--7--7--7--5--------| 
|-7--7--7--7--5--------| 
|-5--5--5--5--3---6--8-| 
|-----------------6--8-| 
[ Tab from: http://www.guitartabs.cc/tabs/s/spineshank/28_tab.html ]
[Dont wish..] 
|-------------------| 
|-------------------| 
|-------------------| 
|-------------------| 
|-------------------| 
|-0--0-0-0--0-0-0-0-| 

[It wont help..] 
|-------------------| 
|-------------------| 
|-7~~~~~~~~~~~~~~~~-| 
|-x-----------------| 
|-5~~~~~~~~~~~~~~~~-| 
|-0--0-0-0--0-0-0-0-| 

Spanish sounding middle 
|-10-11----10-11----10-11----10-11----| 
|-------------------------------------| 
|-------------------------------------| 
|-------------------------------------| 
|-------------------------------------| 
|-------------------------------------| 

Spanish sounding middle continued 
|-17-17-17-17-17-17-17-17-17-17-17-17-17-17-17-17-10-| 
|----------------------------------------------------| 
|----------------------------------------------------| 
|----------------------------------------------------| 
|----------------------------------------------------| 
|----------------------------------------------------| 


tab taken from http://snap.to/spineshank
Comments