Spine Shank - Syntheic Chords & Tabs

 

Syntheic Chords & Tabs

Spine Shank Chords & Tabs

Version: 1 Type: Tab 0 ratings
1 star 2 stars 3 stars 4 stars 5 stars
comments

Syntheic Tab

   
Website-kidkorn.com
email-bif_naked_kid@hotmail.com

Chorus/Intro
e|-----------------|-----------------|-----------|---------|
b|-----------------|-----------------|-----------|---------|
g|-----------------|-----------------|-----------|---------|
d|4-4-4-4-4-4-4-4-6|7-7-7-7-7-7-7-7-6|-----------|---------|
a|2-2-2-2-2-2-2-2-4|5-5-5-5-5-5-5-5-4|5-5-5-5-5-4|5-5-5-5-3|
E|-----------------|-----------------|3-3-3-3-3-3|3-3-3-3-4|
  B5             C#5 D5            C# G5      Gb5 G5      Gb5
[ Tab from: http://www.guitartabs.cc/tabs/s/spine_shank/syntheic_tab.html ]
Verse
e|---------|-------|
b|---------|-------|
g|---------|-------|
d|---------|-------|
a|4-4-4-4-5|2-2-2-2|
E|2-2-2-2-3|0-0-0-0|
 F#5     G5 E5

Octave Fill

e|--------------------------|
b|--------------------------|
g|--------------------------|
d|6-6-6-6-6-6-5-5-5-12-12-12|
d|--------------------------|
a|4-4-4-4-4-4-3-3-3-10-10-10|
E|--------------------------|

Hard part
e|---------------------|-------|
b|---------------------|-------|
g|---------------------|-------|
d|6-6-6-6-6-5-5-5-5-5-5|-------|
a|4-4-4-4-4-3-3-3-3-3-3|5-5-5-5|
E|4-4-4-4-4-3-3-3-3-3-3|3-3-3-3|
C#/G#       C/G         G5
Comments