Spine Shank - Asthmatic Chords & Tabs

 

Asthmatic Chords & Tabs

Spine Shank Chords & Tabs

Version: 1 Type: Tab 0 ratings
1 star 2 stars 3 stars 4 stars 5 stars
comments

Asthmatic Tab

   
Asthmatic
S P I N E S H A N K
Tabbed By Aaron Bridgeman (rokken@sicness.net)

TUNING: (B E A D F# B)

KEY:
s = staccato (play quickly and mute it afterwards)

INTRO:
b |------------------------------------------------|
F#|------------------------------------------------|
D |------------------------------------------------|
A |------------------------------------------------|
E |------------------------------------------------|
B |-2--2--2--2-2-0-- play 3 times --5--5--5--7-7-7-|
[ Tab from: http://www.guitartabs.cc/tabs/s/spine_shank/asthmatic_tab.html ]
HEAVY INTRO:
b |-----------------------------------------------|
F#|-----------------------------------------------|
D |-----------------------------------------------|
A |-----------------------------------------------|
E |-4--4--4--4-4-2- play 3 times --7--7--7--9-9-9-|
B |-2--2--2--2-2-0-----------------5--5--5--7-7-7-|

VERSE:
b |-------------------------------------------------|
F#|-------------------------------------------------|
D |-------------------------------------------------|
A |-------------------------------------------------|
E |--4---4---4---4-2- play 3 times --7--7--7--9-9-9-|
B |--2---2---2---2-0-----------------5--5--5--7-7-7-|
     s   s   s

CHORUS:
No guitar

BRIDGE 1: ("I never wanted your help" part)
b |------------------------------|
F#|------------------------------|
D |------------------------------|
A |------------------------------|
E |-4-4-4-4-4-4-2--5-5-5-5-5-5-2-|
B |-2-2-2-2-2-2-0--3-3-3-3-3-3-0-|

BRIDGE 2: ("I won't give in to" part)
b |-----------------|
F#|-----------------|
D |-----------------|
A |-----------------|
E |-4-4-4-5-5-5-7-7-|
B |-2-2-2-3-3-3-5-5-|

That's pretty much it
Comments