Spinanes - Sunday Chords & Tabs

 

Sunday Chords & Tabs

Spinanes Chords & Tabs

Version: 1 Type: Tab 0 ratings
1 star 2 stars 3 stars 4 stars 5 stars
comments

Sunday Tab

#----------------------------------PLEASE NOTE---------------------------------#
#This file is the author's own work and represents their interpretation of the #
#song. You may only use this file for private study, scholarship, or research. #
#------------------------------------------------------------------------------#

Date: Wed, 01 Oct 1997 14:00:32 +0800
From: Brett Pemberton 
Subject: TAB: sunday.tab by The Spinanes

Sunday
by The Spinanes
from Manos
tabbed by Brett Pemberton 

This was tabbed in an effort to get other people to contribut Spinanes tabs.
Please!  Help out.  Don't make me attempt to to tab out both albums alone!

Yes, the lyrics below are very dodgy in places, ummm blame Rebecca for
singing softly, it's hard to hear her in places.  Any corrections or tabs for
other songs are welcomed.


Intro :

|---------------------------------------------------|
|-1-1-1-1-1-1-1-1-1-1-1-1-1-1-1-1-1-1-1-1-1-1-1-1-1-|
|-0-0-0-0-0-0-0-0-0-0-0-0-0-0-0-0-0-2-2-2-2-2-0-0-0-|
|-3-3-3-3-3-2-2-2-2-2-2-2-3-3-3-3-3-0-0-0-0-0-0-0-0-|
|-3-3-3-3-3-0-0-0-0-0-0-0-3-3-3-3-3-0-0-0-0-0-0-0-0-|
|---------------------------------------------------|

Verse :

|---------------------------------------------------|
|-1-1-1-1-1-1-1-1-1-1-1-1-1-1-1-1-1-1-1-1-1-1-1-1-1-|
|-0-0-0-0-0-0-0-0-0-0-0-0-0-0-0-0-0-2-2-2-2-2-0-0-0-| x 3
|-3-3-3-3-3-2-2-2-2-2-2-2-3-3-3-3-3-0-0-0-0-0-0-0-0-|
|-3-3-3-3-3-0-0-0-0-0-0-0-3-3-3-3-3-0-0-0-0-0-0-0-0-|
|---------------------------------------------------|

You could never turn me off, just turn me upside down.
When push comes to shove, you will be around.

|---------------3-3-3-3-3-3-3-3-3-3-3-|
|-1---1-1---1-1-1-1-1-1-1-1-1-1-1-1-1-|
|-0---0-0---0-0-0-0-0-0-0-0-0-0-0-0-0-|
|-3---3-2---2-2-0-0-0-0-0-0-0-0-0-0-0-|
|-3---3-3---3-3-2-2-2-2-2-2-2-2-2-2-2-|
|---------------3-3-3-3-3-3-3-3-3-3-3-|

To help me.  Put it down.
[ Tab from: http://www.guitartabs.cc/tabs/s/spinanes/sunday_tab.html ]
|---------------------------------------------------|
|-1-1-1-1-1-1-1-1-1-1-1-1-1-1-1-1-1-1-1-1-1-1-1-1-1-|
|-0-0-0-0-0-0-0-0-0-0-0-0-0-0-0-0-0-2-2-2-2-2-0-0-0-|
|-3-3-3-3-3-2-2-2-2-2-2-2-3-3-3-3-3-0-0-0-0-0-0-0-0-| x 3
|-3-3-3-3-3-0-0-0-0-0-0-0-3-3-3-3-3-0-0-0-0-0-0-0-0-|
|---------------------------------------------------|

Funny papers, now picking up things you have found.
I've got an answer, lets listen to it all comes down.

|---------------3-3-3-3-3-3-3-3-3-3-3-|
|-1---1-1---1-1-1-1-1-1-1-1-1-1-1-1-1-|
|-0---0-0---0-0-0-0-0-0-0-0-0-0-0-0-0-|
|-3---3-2---2-2-0-0-0-0-0-0-0-0-0-0-0-|
|-3---3-3---3-3-2-2-2-2-2-2-2-2-2-2-2-|
|---------------3-3-3-3-3-3-3-3-3-3-3-|

Forgotten.  Feel it ?

Chorus :

|-------------------------------------------------|
|-3-3-3-3-3-3-3-3-3-3-3-3-3-3-3-3-3-3-3-3-3-3-3-3-|
|-0-0-0-0-0-0-0-0-0-0-0-0-0-0-0-0-0-0-0-0-0-0-0-0-|
|-2-2-2-2-2-2-2-2-2-2-2-2-------------2-2-2-2-2-2-| x 4
|-3-3-3-3-3-3-3-3-3-3-3-3-0-0-0-0-0-0-0-0-0-0-0-0-|
|-------------------------------------------------|

But you know how far away we are.
You know how far away we are.
You know how far away we are.
You know how far away we are.

Verse 3 :

|---------------------------------------------------|
|-1-1-1-1-1-1-1-1-1-1-1-1-1-1-1-1-1-1-1-1-1-1-1-1-1-|
|-0-0-0-0-0-0-0-0-0-0-0-0-0-0-0-0-0-2-2-2-2-2-0-0-0-|
|-3-3-3-3-3-2-2-2-2-2-2-2-3-3-3-3-3-0-0-0-0-0-0-0-0-| x 4
|-3-3-3-3-3-0-0-0-0-0-0-0-3-3-3-3-3-0-0-0-0-0-0-0-0-|
|---------------------------------------------------|

You got got me looking past you, you catch eyes, catch glance.
You got me spinning ??????? sound ??????? five ???????

|---------------3-3-3-3-3-3-3-3-3-3-3-|
|-1---1-1---1-1-1-1-1-1-1-1-1-1-1-1-1-|
|-0---0-0---0-0-0-0-0-0-0-0-0-0-0-0-0-|
|-3---3-2---2-2-0-0-0-0-0-0-0-0-0-0-0-|
|-3---3-3---3-3-2-2-2-2-2-2-2-2-2-2-2-|
|---------------3-3-3-3-3-3-3-3-3-3-3-|

I'd give you in to this.

Chorus :

|-------------------------------------------------|
|-3-3-3-3-3-3-3-3-3-3-3-3-3-3-3-3-3-3-3-3-3-3-3-3-|
|-0-0-0-0-0-0-0-0-0-0-0-0-0-0-0-0-0-0-0-0-0-0-0-0-|
|-2-2-2-2-2-2-2-2-2-2-2-2-------------2-2-2-2-2-2-| x 4
|-3-3-3-3-3-3-3-3-3-3-3-3-0-0-0-0-0-0-0-0-0-0-0-0-|
|-------------------------------------------------|

But you know how far away we are.
You know how far away we are.
You know how far away we are.
You know how far away we are.

Outro :

|---------------------------|
|-3-3-3-3-3-3-3-3-3-3-3-3-3-|
|-0-0-0-0-0-0-0-0-0-0-0-0-0-|
|-2-2-2-0-0-0-2-2-2-2-2-2-2-| x 4
|-3-3-3-2-2-2-0-0-0-3-3-3-3-|
|-------3-3-3---------------|
Comments