Spinal Tap - Tonight Im Gonna Rock You Chords & Tabs

 

Tonight Im Gonna Rock You Chords & Tabs

Spinal Tap Chords & Tabs

Version: 1 Type: Tab 0 ratings
1 star 2 stars 3 stars 4 stars 5 stars
comments

Tonight Im Gonna Rock You Tab

   
Artist: Spinal Tap

Song: Tonight I'm Gonna Rock You

Tabber: Carlos Bidwell (beefmeister69@hotmail.com)


  This is a cool riff to learn, it really knackers your fingers if 
you play it to speed. I like it myself. I think this is pretty accurate
but if uve got a better version i'd like to hear it!

m= mute (which is just done by lifting the strings off the fretboard)

te-----------------------------------------------------------------
 b-----------------------------------------------------------------
 g-----------------------------------------------------------------
 d--7m-7--5--2m-2--5--10--5--3--10--7m-7---------------------------
 a--7m-7--5--2m-2--5--10--5--3--10--7m-7---------------------------
be--5m-5--3--0m-0--3---8--3--1---8--5m-5---------------------------

Thats the main riff, im workin on the chorus, its coming along nicely.
Good luck!


=================================================================


          Band : Spinal tap
          Song : Tonight I'm Gonna Rock You *revised
          
          okay . imade a mistake i admit it. I didn't finish the main riff on the tab 
           i sent inso i corrected it. here is the whole

           Main Riff
          
               G    A  A    G    E     G  C  G   F   C  A  A
          
          E----3----5--5----3----0-----3--3--3---1---3--5--5--
          B----3----5--5----3----0-----3--5--3---1---5--5--5--
          G----4----6--6----4----1-----4--5--4---2---5--6--6--
          D----5----7--7----5----2-----5--5--5---3---5--7--7--
          A----5----7--7----5----2-----5--3--5---3---3--7--7--
          E----3----5--5----3----0-----3-----3---1------5--5--


=========
[ Tab from: http://www.guitartabs.cc/tabs/s/spinal_tap/tonight_im_gonna_rock_you_tab.html ]
          Artist : Spinal Tap
          Song : Tonight I'm Gonna Rock You
          Album: There is no album its from the movie 
          
          this is the rhythm guitar part. i havn't figured out the solo yet.
          
          
          Main Riff
          
               G    A  A    G    E       C
          
          E----3----5--5----3----0-------3---
          B----3----5--5----3----0-------5---
          G----4----6--6----4----1-------5---
          D----5----7--7----5----2-------5---
          A----5----7--7----5----2-------3---
          E----3----5--5----3----0-----------
          
          
          Verse
          
              C D      E  F       A      C D      E  F
          E---3-5------7--8-------0------3-5------7--8----
          B---5-7------9--10------2------5-7------9--10---
          G---5-7------9--10------2------5-7------9--10---
          D---5-7------9--10------2------5-7------9--10---
          A---3-5------7--8-------0------3-5------7--8----
          E-----------------------------------------------
          
          
          Chorus
          
              B    E
          E---1----7---
          B---3----9---
          G---3----9---
          D---3----9---
          A---1----7---
          E------------
          
          Interlude
          
          E---------------------------------
          B---------------------------------
          G---------------------------------
          D-------------------------------0-
          A---3-3-0-0-3-3-0-0-3-3-0-0-3-----
          E---------------------------------
            |___________Palm Mute______|
          
          
          Alright. figure out your own outro and bust out. this is a hell a tight 
          song. and if you havn't seent he movie. rent it. every musician should see it. 
          
          if you figure out the solo, email me at bobist09@aol.com
          im to lazy to figure it out myself
Comments