Spin Doctors - How Could You Want Him Chords & Tabs

 

How Could You Want Him Chords & Tabs

Spin Doctors Chords & Tabs

Version: 2 Type: Tab 0 ratings
1 star 2 stars 3 stars 4 stars 5 stars
comments

How Could You Want Him Tab

Spin Doctors- How Could You Want Him

Tabs by-Revi Roza

This isn't the whole thing but it's the main parts of the song.

x-mute strings
p-pull off
/-slide
h-hammer on

Verse:   

First guitar part:
E-------3-----3--3-------3-----3--3
B-----3---3--3--3------3---3--3--3-
G---0-------4--2-----0-------4--2--   
D----------------------------------     
A----------------------------------
E----------------------------------


Chorus:
  He dizzy dangles by the seraphim
E-----------------------------------------
B-------10---------10p8---------8--/10-8--
G----10----10---10-----h10----6--6------10
D--8----------8-------------7-----7-------
A-----------------------------------------
E-----------------------------------------
[ Tab from: http://www.guitartabs.cc/tabs/s/spin_doctors/how_could_you_want_him_tab_ver_2.html ]
  He only wants a pretty face by him
E-----------------------------------------
B-------10---------10p8---------8--/10-8--
G----10----10---10-----h10----6--6------10
D--8----------8-------------7-----7-------
A-----------------------------------------
E-----------------------------------------

  How could you want him when you know you could have me
E-----------------------------------------
B-------10---------10p8-------------------
G----10----10---10-----h10------8-------10
D--8----------8---------------9------11---
A-----------------------------------------
E---------------------------7------9------

First guitar part continues

Second guitar part:

E--7-7--x-x-------7-7--x-x-----
B--8-8--x-x--7-7--8-8--x-x--7-7
G--7-7--x-x--7-7--7-7--x-x--7-7
D------------7-7------------7-7
A------------------------------
E------------------------------

Comments