Spin Doctors - Cleopatra's Cat Chords & Tabs

 

Cleopatra's Cat Chords & Tabs

Spin Doctors Chords & Tabs

Version: 2 Type: Bass Tab 0 ratings
1 star 2 stars 3 stars 4 stars 5 stars
comments

Cleopatra's Cat Bass Tab

Song Title: Cleopatra's cat
Artist: Spin Doctors
----------------------------------------------

These are some keys to understand the transcription:
+  means thumb(slap)
v  means popping
/  means slide up
\  means slide down
-X- means ghost note(done by pressing the string without touching the fretboard)
h  means hammer
p  means pull

So take a look at this transcription,but take into consideration that I haven't
transcribed here all the (continuos)variation that White do.
Enjoy yourself,play a bass(or something else!)!!!
[ Tab from: http://www.guitartabs.cc/tabs/s/spin_doctors/cleopatras_cat_btab_ver_2.html ]
INTRO
G |-0-let it sound while turning the volume down-------...---...---...-----9/---
D |-2-..........................................-----2-...---...---...----------
A |-2-..........................................-------...---...---...----------
E |-0-..........................................-------...-0-...-0-...-0-----12\
                                                     v     +     +     +

RIFF
G |-------------------------------------------------------and so on...
D |------4---------------5-7-5-5-------2-2-----4----------and so on...
A |-------5-3-(2)-------------7-7-5-0-----------5-3-(2)---and so on...
E |-0-(3)--------2--3-(3)-----------------0-(3)--------2--and so on...

BRIDGE
G |---------------------------
D |---------------------------
A |-----------------2-------2-
E |-0-2-3-2-0-0-2-3--2-3-0-2--


OK,it's a little bit incomplete...but it really takes too much time to add every
variation.My suggestion is to create your own variations;for example,use the 
SLAP techniques to play the riff sometimes(in the guitar solo,in the screamed 
parts like 'Centuuuurioooons!',...)
Well,goodbye.And come see my others transcriptions (Soul To Squeeze...).
P.S. E-mail me your comments & suggestions(wanted and given...).




Submitted by:  Massimo Piacentini (gf.piacentini@selta.inet.it)
Comments